Electric 6Naked Pictures Текст

0 Голосов
-------------------------------------------------------------------------------

Naked Pictures (Of Your Mother) ЕС Electric 6
-------------------------------------------------------------------------------

INTRO.

e|---------------------------------|--------------------------Ўь-Ўэ-Ўь-Ўэ-Ўь-||
B|---------------------------------|------------------------------------||
G|------------8------------6-6-6-6-|------------8---------|R|-6-6-6-6-6-||
D|-6-6-6-6-6--8--2--2-2-2--6-6-6-6-|-6-6-6-6-6--8--2--2-2-|E|-6-6-6-6-6-||
A|-6-6-6-6-6--6--2--2-2-2--4-4-4-4-|-6-6-6-6-6--6--2--2-2-|S|-4-4-4-4-4-||
E|-4-4-4-4-4-----0--0-0-0----------|-4-4-4-4-4-----0--0-0-|T|-----------||

e|---------------------------------|---------------------------------|
B|---------------------------------|---------------------------------|
G|------------8------------6-6-6-6-|------------8------------6-6-6-6-|
D|-6-6-6-6-6--8--2--2-2-2--6-6-6-6-|-6-6-6-6-6--8--2--2-2-2--6-6-6-6-|
A|-6-6-6-6-6--6--2--2-2-2--4-4-4-4-|-6-6-6-6-6--6--2--2-2-2--4-4-4-4-|
E|-4-4-4-4-4-----0--0-0-0----------|-4-4-4-4-4-----0--0-0-0----------|

VERSE.

Ў°when nobody... hellЎ± Ў°everyoneЎЇs... sellЎ±
e|--------------3--3-3-3----------|--------------3--3-3-3----------|
B|--------------3--3-3-3----------|--------------3--3-3-3----------|
G|--------------3--3-3-3--6-6-6-6-|--------------3--3-3-3--6-6-6-6-|
D|-6-6-6-6-6-6--2--2-2-2--6-6-6-6-|-6-6-6-6-6-6--2--2-2-2--6-6-6-6-|
A|-6-6-6-6-6-6--2--2-2-2--4-4-4-4-|-6-6-6-6-6-6--2--2-2-2--4-4-4-4-|
E|-4-4-4-4-4-4--0--0-0-0----------|-4-4-4-4-4-4--0--0-0-0----------|

Ў°when I was... adviceЎ± etc...
e|--------------3--3-3-3----------|--------------3--3-3-3----------|
B|--------------3--3-3-3----------|--------------3--3-3-3----------|
G|--------------3--3-3-3--6-6-6-6-|--------------3--3-3-3--6-6-6-6-|
D|-6-6-6-6-6-6--2--2-2-2--6-6-6-6-|-6-6-6-6-6-6--2--2-2-2--6-6-6-6-|
A|-6-6-6-6-6-6--2--2-2-2--4-4-4-4-|-6-6-6-6-6-6--2--2-2-2--4-4-4-4-|
E|-4-4-4-4-4-4--0--0-0-0----------|-4-4-4-4-4-4--0--0-0-0----------|

BRIDGE.

e|--------------3--3-3-3----------|
B|--------------3--3-3-3----------|
G|--------------3--3-3-3--6-6-6-6-|
D|-6-6-6-6-6-6--2--2-2-2--6-6-6-6-|
A|-6-6-6-6-6-6--2--2-2-2--4-4-4-4-|
E|-4-4-4-4-4-4--0--0-0-0----------| x4

CHORUS.

Ў°NAKED PICTURES OF YOUR MOTHER...Ў±
e|--------------------------------|
B|--------------------------------|
G|------------7--6-6-6-6----------|
D|-6-6-6-6-6--7--6-6-6-6--7-7-7-7-|
A|-6-6-6-6-6--5--4-4-4-4--7-7-7-7-|
E|-4-4-4-4-4--------------5-5-5-5-| x4

e|-4-4-4---4-4-44444-|-4-4-4---4-4-44444-| x2
B|---------------------------------------|
G|---------------------------------------|
D|---------------------------------------|
A|---------------------------------------|
E|---------------------------------------|

SOLO.

e|-----------------------------------
B|-----------------------------------
G|--6^-6-6-6-6h4-4-41ЎЄ1-7~-6-6-6-7~-
D|-----------------------------------
A|-----------------------------------
E|-----------------------------------

e|------------------------------7---------------||
B|---------------7-9-9-9-7-9-9-9-9-7-9-7-7-7-9-9||
G|6-6-6-6/8-8-8-8-----------------------8-------||
D|----------------------------------------------||
A|----------------------------------------------||
E|----------------------------------------------||

VERSE 2.

e|-----------------------||
B|-----------------------||
G|6~----6~----6~----12~--||
D|-----------------------||
A|-----------------------||
E|-----------------------||

PLAY BRIDGE AND CHORUS ONE MORE.

| / slide up
| slide down
| h hammer-on
| p pull-off
| ~ vibrato
| + harmonic
| x Mute note
===============================================================================
Другие песни: