Electric 6Dance Commander Текст

0 Голосов
Song: Dance Commander 

Artist/Band: Electric Six

Verse:
G-------------------------------------------
D------------------------------------------- x3
A-------------------------------------------
E--2--2-3-3-3-3-3-3-7-7-7-7-7-7-7-7-7-7-7-7-

G---------------------------------
D--------------------------------- x1
A-5-5-5-5-5-5-5-5-7-7-7-7-7-7-7-7-
E---------------------------------

Chorus:
G-------------------------------------------
D------------------------------------------- x3
A-------------------------------------------
E--2--2-3-3-3-3-3-3-7-7-7-7-7-7-7-7-7-7-7-7-

G---------------------
D--------------------- x1
A---------------------
E--2--2-3-3-3-3-3-3-7-

Verse:
G-------------------------------------------
D------------------------------------------- x8
A-------------------------------------------
E--2--2-3-3-3-3-3-3-7-7-7-7-7-7-7-7-7-7-7-7-

Chorus:
G-------------------------------------------
D------------------------------------------- x3
A-------------------------------------------
E--2--2-3-3-3-3-3-3-7-7-7-7-7-7-7-7-7-7-7-7-

G---------------------------------
D--------------------------------- x1
A-5-5-5-5-5-5-5-5-7-7-7-7-7-7-7-7-
E---------------------------------

“wanna make it last forever”
G----------------------------------
D---------------------------------- x4
A----------------------------------
E-7-7-7-7-7-7-7-7--7-7-7-7-7-7-7-7-

G----------------------------------
D---------------------------------- x4
A----------------------------------
E-3-3-3-3-3-3-3-3--5-5-5-5-5-5-5-5-

Outro/Chorus:
G-------------------------------------------
D------------------------------------------- x5
A-------------------------------------------
E--2--2-3-3-3-3-3-3-7-7-7-7-7-7-7-7-7-7-7-7-

G---------------------
D--------------------- x1
A---------------------
E--2--2-3-3-3-3-3-3-7-


I’m 99.9% sure this is correct. Please rate this if it is of any use to you.
Any questions or comments ibanez_k503@hotmail.com
Другие песни: