Егоров ВадимЛето Текст

0 Голосов
Рифф 1 (Гитара 1):
G5 C5 E5 D5
e---------------------------------|---------------------------------|
b---------------------------------|---------------------------------|
g-0-0-4-0-2-0-0-4-0-0-2-0-5-4-2-0-|-0-0-4-0-2-0-0-0-7-0-5-0-4-0-2-0-|
d---------------------------------|---------------------------------| x3
a---------------------------------|---------------------------------|
e---------------------------------|---------------------------------|

G5 C5 E5 D5
e---------------------------------|---------------------------------|
b---------------------------------|---------------------------------|
g-0-0-4-0-2-0-0-4-0-0-2-0-5-4-2-0-|-0-0-4-0-2-0-0-0-2-0-0-0-0-------|
d---------------------------------|---------------------------------|
a---------------------------------|---------------------------------|
e---------------------------------|---------------------------------|

Рифф 2 (Гитара 2):
G5 C5 E5 D5
e-------------------------0-------|---------------------------------|
b-0-0-3-0-1-0-0-3-0-0-1-0---3-1-0-|-0-0-3-0-1-0-0-0-1-0-0-0-0-------|
g---------------------------------|---------------------------------|
d---------------------------------|---------------------------------| x3
a---------------------------------|---------------------------------|
e---------------------------------|---------------------------------|

G5 C5 E5 D5
e-------------------------0-------|---------------------------------|
b-0-0-3-0-1-0-0-3-0-0-1-0---3-1-0-|-0-0-3-0-1-0-0-0-8-0-5-0-3-0-1-0-|
g---------------------------------|---------------------------------|
d---------------------------------|---------------------------------|
a---------------------------------|---------------------------------|
e---------------------------------|---------------------------------|

Рифф 3 (Гитара 1):
G5 D5 E5 C5
e---------------------------------|---------------------------------|
b---------------------------------|---------------------------------|
g---------------------------------|---------------------------------|
d-----------------------4-4-4-7-7-|-------5-5-5-9-9-------9-9-9-7-7-|
a-------2-2-2-3-3-5-5-5-----------|-7-7-7---------------------------|
e-3-3-3---------------------------|-----------------8-8-8-----------|

G5 D5 E5 C5 C5/B A5
e---------------------------------|---------------------------------|
b---------------------------------|---------------------------------|
g---------------------------------|---------------------------------|
d-----------------------4-4-4-7-7-|-------5-5-5-9-9-----------------|
a-------2-2-2-3-3-5-5-5-----------|-7-7-7---------------------------|
e-3-3-3---------------------------|-----------------8-8-8-7-7-7-5-5-|

Куплеты:
G5 D5
e---------------------------------|---------------------------------|
b---------------------------------|---------------------------------|
g-----------------4-----4-----4---|-7---7-7-7-7-7-7-4-----4-----4---|
d-7---7-7-7-7-7-7-----------------|-7---7-7-7-7-7-7-----------------|
a-7---7-7-7-7-7-7-----------------|-5---5-5-5-5-5-5---5-5---5-5---5-|
e-5---5-5-5-5-5-5---3-3---3-3---3-|---------------------------------|

E5 C5
e---------------------------------|---------------------------------|
b---------------------------------|---------------------------------|
g-----------------4-----4-----4---|-5---5-5-5-5-5-5-4-----5-----4---|
d-2---2-2-2-2-2-2-----------------|-5---5-5-5-5-5-5-----------------|
a-2---2-2-2-2-2-2-----------------|-3---3-3-3-3-3-3---3-3---3-3---3-|
e-0---0-0-0-0-0-0---0-0---0-0---0-|---------------------------------|

G5 D5
Скейт под ногами, солнечный день,
E5
В ушах Rancid, NOFX и Green Day
C5
Ветер в лицо, банка в руках,
G5
Я забыл слово "страх"
D5
Лечу по улице словно стрела,
E5
Сметая всё на пути на раз-два
C5 B5 D5 F#5
Я закрываю от счастья глаза

G5 D5
Лето, Свобода,
E5 C5
Солнце и небосводы
G5 D5 E5 C5
Лето время для меня

G5 D5
Жара, песок, волны и пляж,
E5
Купальники, летний кураж,
C5
Улыбки на лицах, искры в глазах,
C5
Ветер в головах
G5 A5
Наступит вечер - нам снова пора
E5
Концерты, вписки, ор до утра.
C5
Отведай полной свободы глоток!
G5 | G5/F# | E5 | C5 D5 |x2
Детка, это панк-рок!

Соло:
G5 G5/F# E5 C5 D5
e-------------------------------------------------------------|
b---------------3---3---3-3-3---------------------------------|
g-4---4---4-4-4---------------3---3---3-3-3-0---0-0-0-0-2-2-2-|x3
d-------------------------------------------------------------|
a-------------------------------------------------------------|
e-------------------------------------------------------------|

G5 G5/F# E5 C5 D5 F#5
e-------------------------------------------------------------|
b---------------3---3---3-3-3---------------------------------|
g-4---4---4-4-4---------------0---------------4-----7---------|
d---------------------------------------------4-----7-----4---|
a---------------------------------------------2-----5-----4---|
e---------------------------------------------------------2---|

G5 D5
Лето, Свобода,
E5 C5
Солнце и небосводы
G5 D5 E5 C5
Лето время для меня
Другие песни: