Егор и ОпизденевшиеПсиходелия Tomorrow Текст

0 Голосов
Интро - орган:
постоянно играются 2 ноты - Ре (D) и Ля (A).
Можно варьировать в разных позициях и октавах.
E||-------------------|-------------------|---------------------|-----------------------|----------------------|-----
B||-------------------|-------------------|--6--------5----3----|--5-6-5-3-5------------|------------3----5----|--6--
G||-------------------|-------------------|---------------------|-----------------------|----------------------|-----
D||--7----------------|-------------------|---------------------|-----------------------|----------------------|-----
A||--5----------------|-------------------|---------------------|-----------------------|----------------------|-----
E||-------------------|-------------------|---------------------|-----------------------|----------------------|-----

Басс партия:
Используются 3 риффа. На 03:23 играется мини-проигрыш.
Последовательность риффов и время их начала внизу.
Riff А
---------------------7--|--10------10--9--7-----7--|---------------------7--|--10------10--9--7-----7--|
---------------5--7-----|--------------------8-----|---------------5--7-----|--------------------8-----|
--5------5--8-----------|--------------------------|--5------5--8-----------|--------------------------|
------------------------|--------------------------|------------------------|--------------------------|

Riff В
|--7------7-------7----|------------------------|--7------7-------7----|------------------------|
|------------8---------|---------------7--5--7--|------------8---------|---------------7--5--7--|
|----------------------|--5------5--8-----------|----------------------|--5------5--8-----------|
|----------------------|------------------------|----------------------|------------------------|


Riff С
|------------------------|---------------------7--|------------------------|---------------------7--|
|---------------7--5-----|------------------7-----|---------------7--5-----|------------------7-----|
|--5------5--8--------5--|--8------5--8--5--------|--5------5--8--------5--|--8------5--8--5--------|
|------------------------|------------------------|------------------------|------------------------|


...Riff С ending Mini-solo Riff A...
|---------------------7--|------------10--10----9----|--7------7--7-------7--|---------------------7--|--10------10--9--7-----7--|
|------------------7-----|--7------------------------|---------------8-------|---------------5--7-----|--------------------8-----|
|--8------5--8--5--------|---------------------------|-----------------------|--5------5--8-----------|--------------------------|
|------------------------|---------------------------|-----------------------|------------------------|--------------------------|

А x4 00:53
В x4 01:11
А x4 01:27
В x4 01:45
А x4 02:00
В x4 02:17
А x4 02:33
В x4 02:50
С x4 03:05
mini-solo 03:23
А x7 03:26
В x8 03:57
С x4 04:31
В x6 04:48
А x4 05:12
В x4 05:30
С x4 05:45
В x4 06:03
А x4 06:19
В x8 06:36
А x4 07:09
В x4 07:27
А x4 07:42
В x4 08:00
А x4 08:16
В x4 08:33
А x4 08:49
В x4 09:06
С x4 09:23
В x4 09:39
А x4 09:55
С x4 10:13
А x4 10:31
В x10 10:48
А x4 11:30
С x4 11:47
В x12 12:05
А x4 12:56
В x4 13:13
А x4 13:29
В x4 13:47
С x4 14:03
В x4 14:20
А x4 14:36
В x4 14:52
А x4 15:09
Другие песни: