Earthtone 9Tat Twam Asi Текст, аккорды

0 Голосов
author/artist: earthtone9

title: tat twam asi
album: arc' tan' gent
transcribed by: oz
email: oz@earthtone9.com
-|-----------------------------------------------------------------------------|
-|-----------------------------------------------------------------------------|
-|-----------------9--10--9--13--9--10--9--13----------------------------------|
-|-----------------------------------------------------------------------------|
-|-----------------------------------------------------------------------------|
-|-----------------------------------------------------------------------------|
gtr 1 - intro p.m.----------------------------------------------------------| (check rhythm on cd)
-|-----------------------------------------------------------------------------|
-|-----------------------------------------------------------------------------|
-|-----------------------------------------------------------------------------|
-|-----------------------------------------------------------------------------|
-|-----------------7-7---7h8-8-------------------------------------------------|
-|---------------------0-------------------------------------------------------|
gtr 2 - intro p.m.-----------------------------------------------------------|
-|--------------------------------------------|--------------------------------|
-|--------------------------------------------|--------------------------------|
-|-9--9/10-109--9/10/13----------------------|--13b---------------------------|
-|-x--x/x--x-x--x/x-/x-----------------------|--x-----------------------------|
-|-7--7/8--8-7--7/8-/11----------------------|--11----------------------------|
-|--------------------------------------------|--------------------------------|
gtr 1 & 2 - verse pt1 (check rhythm on cd) last repeat
-|--------------------------------|-------------------------------------------|
-|--------------------------------|-------------------------------------------|
-|-------------12-12-12-12--------|-------------------------------------------|
-|-------------x--x--x--x---------|-------------------------------------------|
-|-------------10-10-10-10--------|-------------------------------------------|
-|-13br0-13br0--------------------|-0-12-0-13-0-11-0-12-12h13-11--------------|
gtr 1 - verse pt2 x3 last repeat
-|--------------------------------|-------------------------------------------|
-|--------------------------------|-------------------------------------------|
-|-12-----------------------------|-------------------------------------------|
-|-x------------------------------|-------------------------------------------|
-|-10-----------------------------|-------------------------------------------|
-|--------------------------------|-0-12-0-13-0-11-0-12-12h13-11--------------|
gtr 1 - verse pt2
-|--------------------------------|-------------------------------------------|
-|--------------------------------|-------------------------------------------|
-|--------------------------------|-------------------------------------------|
-|--------------------------------|-------------------------------------------|
-|--------------5--5--5--5--------|-------------------------------------------|
-|-1br0--1br0---3--3--3--3--------|-0-12-0-13-0-11-0-12-12h13-11--------------|
gtr 2 - verse pt2
-|----------------------------------------------------------------------------|
-|------------------------3---------------------------------------------------|
-|------------------------2---------------------------------------------------|
-|---9---10---12----------0---------------------------------------------------|
-|---7---8----10--------------------------------------------------------------|
-|-0---0----0----------0------------------------------------------------------|
gtr 1 - chorus link
-|----------------------------------------------------------------------------|
-|----------------------------------------------------------------------------|
-|----------------------------------------------------------------------------|
-|---9---10---12--------12----------------------------------------------------|
-|---7---8----10--------10----------------------------------------------------|
-|-0---0----0-----------------------------------------------------------------|
gtr 2 - chorus link
-|--------------------------------------------------3--------------------------|
-|---------------------------5---------5---------5--3--------------------------|
-|-5--------5----------------4---------4---------4--0--------------------------|
-|-5--------4----------------2---------2---------2--0--------------------------|
-|-3--------3----------------2---------2---------2--2--------------------------|
-|-------------------0-0-0-0-0-0-0-0-0-0-0-0-0-0-0--3--------------------------|
gtr 1 - chorus p.m.---- ------- --------------------------------------|
-|-----------------------------------------------------------------------------|
-|---------------------------5---------5---------5-----------------------------|
-|-5--------5----------------4---------4---------4--7--------------------------|
-|-5--------4----------------2---------2---------2--7--------------------------|
-|-3--------3----------------2---------2---------2--5--------------------------|
-|-------------------0-0-0-0-0-0-0-0-0-0-0-0-0-0-0-----------------------------|
gtr 2 - chorus p.m.--- ------- --------------------------------------|
-|-----------------------------------------------------------------------------|
-|-----------------------------------------------------------------------------|
-|-3--------10--9b------3--------10--9--10--12--14-----------------------------|
-|-x--------x---x-------x--------x---x--x---x---x------------------------------|
-|-1--------8---7-------1--------8---7--8---10--12-----------------------------|
-|-----------------------------------------------------------------------------|
gtr 1 - midsection pt 1
-|---------------------0-------------|----------------------------------------|
-|---------------------0-------------|----------------------------------------|
-|---------------------0-------------|-12---7---------------------------------|
-|-3-3-3-2---3-3-3-2/----------------|-12---7---------------------------------|
-|-3-3-3-2---3-3-3-2/----------------|-10---5---------------------------------|
-|-1-1-1-0--01-1-1-0/----------------|----------------------------------------|
gtr 1 - midsection pt2 last repeat
-|----------------------------------------------------------------------------|
-|-11/13/15/17/18------11/13/15/18176---------------------------------------|
-|--x--x--x--x--x-------x--x--x--x--x-x---------------------------------------|
-|--8/10/12/14/15-------8/10/12/15143---------------------------------------|
-|----------------------------------------------------------------------------|
-|----------------------------------------------------------------------------|
gtr 2 mid-section part1 (strummed fast)
-|0-0--0--0-----------|---0-0--0--0-----------|---0-0--0--0-------------------|
-|65/12-12-12b13r12v-|---65/13-13-13b15r13v-|---65/15-15-15b17b17v---------|
-|--------------------|-----------------------|-------------------------------|
-|--------------------|-----------------------|-------------------------------|
-|--------------------|-----------------------|-------------------------------|
-|--------------------|-----------------------|-------------------------------|
gtr 2 - part 2 bar 1 bar 2 bar 3

-|---0--0--0--12-12-12|-------------------------------------------------------|
-|--1312/15--15b17-15|-------------------------------------------------------|
-|--------------------|-------------------------------------------------------|
-|--------------------|-------------------------------------------------------|
-|--------------------|-------------------------------------------------------|
-|--------------------|-------------------------------------------------------|
bar 4 sequence: bar 1,2,1,3,1,2,1,4
Другие песни: