Early NovemberSunday Drive Текст

0 Голосов
Early November - Sunday Drive

CD: For all of this


this is a great song by a great band, alot of people say that you have to tune to
dropped D to play this (everything tuned a half step down and the 6th string tuned to D)
but you dont, just tune the sixth string to D and it will sound fine
email me at chunkielunchbox@yahoo.com for corrections or concerns


Order:
Main Riff
Bridge
Main Riff
Bridge
Ending Riff


Main Riff
e---------------------------------
B---------------------------------
G--7-------------7----------------
D--7-------------7----------------
A--5-------------x----------------
D----------------5----------------

strum about 8 times each
all downstrokes

bridge
e-------------------------
B-------------------------
G--7---------7---------7--
D--7---------7---------7--
A--5---------7---------x--
D----------------------5--
| | |
10X 10X 20X

the above numbers are the strumming numbers in strumming down and up vigoresly,
you can listen to the song if you think im wrong, but it sounds good

ending riff
e--------------------------------------------
B--------------------------------------------
G--7----------7------------------------------
D--7----------7----------9----------9--------
A--x----------x----------9----------9--------
D--5----------7----------9----------11-------


thats about it, this band kicks ass you should attempt to see them on tour soon they are
currently headlining a tour and they are also opening for less then jake, i would go see
them if i were you.... thanks
Другие песни: