EaglesDesperado Текст

0 Голосов
Intro:
e---------------------
B---------------------
G---------------------
D---------------------
A---2х3-0h2-----------
E-----------3h5-2х3-0-

e------------------------------------0-----------------------
B--------0-0---0------1p0-0---0------1p0-0---0---------------
G----------0---0------0---0---0------0---0---0-----4---0---2-
D----------2---2------2---2---2------2---2---2-----5--2-/-4-
A-----2------------------------------------------------------
E---0--------------------------------------------------------

e-----------------------------------------------------------------0-
B----------------------------------------------------------------0--
G-------2-2---2---4---2---5---5---4---4--2---2--0---0-----------0---
D-----4---4---4---5--4-/-7---7-----5------4------2----4---4---2----
A---2----------------------------------------------------6----2-----
E------------------------------------------------------------0------

e---------7-7.---7-7.---8--7.---7------8--7.---7------5---5---5-
B-------8---8.---8-8.---10-8.---8------10-8.---8------7---7---7-
G-----9---------------------------9.-------------9.-------------
D---9-----------------------------------------------------------
A---------------------------------------------------------------
E---------------------------------------------------------------

Em B
Soy un hombre muy honrado, Que me gusta lo mejor
Em
A mujeres no me faltan, Ni al dinero, ni el amor.
Em B
...En mi caballo, Por la sierra yo me voy
Em
Las estrellas y la luna, Ellas me dicen donde voy.

Am Em
Ay, ay, ay, ay
B Em
Ay, ay, mi amor
Am Em
Ay, mi morena
B Em
De mi corazon

------7-7-7-7-8-7-7-7-8-7-7--------|------5-5-5-5-7-5-5-5-7-5-5-----|
-----8-8-8-8-8-8-8-8-8-8-8-8-8-10--|-----7-7-7-7-7-7-7-7-7-7-7-7-8--|
---9-------------------------9-11--|---7-----------------------8-9--|
-9---------------------------------|-7------------------------------|
-----------------------------------|--------------------------------|
-----------------------------------|--------------------------------|
B Em

Em B
Me gusta tocar guitarra, me gusta cantar el sol
Em
Mariachi me acompana, quando canto my cancion.
Em B
Me gustan tomar mis copas, aguardiente es lo mejor
Em
Tanbien la tequilla blanca, con cu sal le da sabor.

Am Em
Ay, ay, ay, ay
B Em
Ay, ay, mi amor
Am Em
Ay, mi morena
B Em
De mi corazon

Solo: Em - B - Em - B - Em - B - Em - B - Em - B - Em

Em B
Me gusta tocar guitarra, me gusta cantar el sol
Em
Mariachi me acompana, quando canto my cancion.

Em B
Me gustan tomar mis copas, aguardiente es lo mejor
Em
Tanbien la tequilla blanca, con cu sal le da sabor.

Am Em
Ay, ay, ay, ay
B Em
Ay, ay, mi amor
Am Em
Ay, mi morena
B Em
De mi corazon
Am Em
Ay, ay, ay, ay
B Em
Ay, ay, mi amor
Am Em
Ay, mi morena
B Em
De mi corazon
Другие песни: