Dylan BobMississippi Текст

0 Голосов
Mississippi

By Bob Dylan recorded on LOVE AND THEIFT (2001)
Tabbed by Ian (ickis@netnet.net)

INTRO

G-------------------------------|
D--------0-0-0-2-2-2-3-3-3-2p0--|
A--3-3-3-----------------------3|
E-------------------------------|


Verse:
G-------------------------------------------
D-------3-3-3-------3-3-3--------3-3-3-----3
A-3-3-3-------3-3-3--------3-3-3-------3-3-3
E------------------------------------------3

G---------------------------------------
D--------3-3-3-------3-3-3----0-2-3-2p0--
A--3-3-3-------3-3-3--------3-----------3
E---------------------------------------

repeat that then...

BRIDGE:

G----------------------
D----------0--2--3--2-3
A--0--2--3------------3
E----------------------

Now repeat the VERSE again.

SO FOR REVIEW

1. Introx1
2 Versex2
3 Bridgex2
4 Versex1
5 Introx1

DO THIS FOR EVERY VERSE.

You can get the lyrics at: www.bobdylan.com
Другие песни: