Drowning PoolSinner Текст

0 Голосов
To me it's a fun song to play if you can learn it but it's hard if you have any 

questions e-mail me at sosa101@aol.com

4 String Version : Drop C Tuning



Intro
G---||--------------------------------------------------------------
D---||*-------------------------------------------------------------
A---||*--3--3--3----------------------------------------------------
C---||------------6--6--6--6--6--6--6--6--0--0--0--6--6--6--6--6--6-


2x Link
G----------------||--------|------------------
D---------------*||--------|------------------
A---------------*||--------|------------------
C---6--6--3--0---||--0~~~--|--0--2--3--5--6--7


Verse 19x
G---||-------------------------||
D---||*-----------------------*||
A---||*-----------------------*||
C---||---0--0--0--0--0--1--2---||


Link x1
Intro x4
Verse x19
Link x1
Intro x4

Interlude 4x
G---||----------------------||----------------------
D---||*--------------------*||----------------------
A---||*--------------------*||----------------------
C---||---0--0--0--0--0--0---||---3--3--3p1~~~--0~~~-



Link x1
Verse x7
Link x1
Verse x7
Link x1
Intro x6

*********

5 String Version : Standard Tuning

Intro
G---||------------------------------------------------------------------
D---||------------------------------------------------------------------
A---||*--3--3--3--------------------------------------------------------
E---||*-----------2--2--2--2--2--2--2--2-----------2--2--2--2--2--2-----
B---||------------------------------------1--1--1-----------------------


2x Link
G----------------||--------|--------------------
D----------------||--------|--------------------
A---------------*||--------|--------------------
E---2--2--------*||--------|-----------1--2--3--
B---------4--1---||--1~~~--|--1--3--4-----------


Verse 19x
G---||-------------------------||
D---||-------------------------||
A---||*-----------------------*||
E---||*-----------------------*||
B---||---1--1--1--1--1--2--3---||


Play Link x1
Intro x4
Verse x19
Link x1
Intro x4

Interlude 4x
G---||----------------------||----------------------
D---||----------------------||----------------------
A---||*--------------------*||----------------------
E---||*--------------------*||----------------------
B---||---1--1--1--1--1--1---||---4--4--4p2~~~--1~~~-



Link x1
Verse x7
Link x1
Verse x7
Link x1
Intro x6

*********
Другие песни: