DownLifer Текст

0 Голосов
Another one from NOLA for you fans out there, Stoned the Crow is next then Bury Me In 

Smoke to follow that soon.
Db tuning as normal. Hope it sounds right to y'all

By:Bill =slide in that direction
~=stacatto? (shimmy yer finger)
^=pull up 1/2 step ( ^^ means full step)

LIFER

Intro #1
eb|--------|------------------------------------------|
Bb|--------|------------------------------------------|
Gb|--------|------------------------------------------|
Db|--------|------------------------------------------|
Ab|--------|--------5h8----5h8-5h8-8p5--5-------------|
Db|00---9-|-0---00-----00----------------------------|
pm pm pm

#2 #3
eb|------------------|-----------------------------------|
Bb|------------------|-----------------10^^8-------------|
Gb|------------------|------5h7-9p7--7-------10----------|
Db|------------------|-5h7-------------------------------|
Ab|----3h5-3-33--3-2-|-----------------------------------|
Db|3h5-----3-33--3-2-|-----------------------------------|
pm
#4
eb|------------------------------------------------------|
Bb|------------------------------------------------------|
Gb|------------------------------------------------------|
Db|---------------------------------------------3--------|
Ab|0--00--2--3--3/6--5------3p0-------3---3h5------------|
Db|0--00--2--3--3/6--5--3h5-------3h5--------------------|
pm
#5
eb|-------------------------------------------------------|
Bb|-------------------------------------------------------|
Gb|-------------------------------------------------------|
Db|-------------------------------------------------------|
Ab|-0--00--2--3--3/6--5-----------------------------------|
Db|-0--00--2--3--3/6--5--5/125---53----32--------------|
pm
#6
eb|-------------------------------------------------------|
Bb|-------------------------------------------------------|
Gb|-------------------------------------------------------|
Db|-------------------------------------------------------|
Ab|0-00--2-3-3/6-5-------3h5--5p3-5p3-5p3-----------------|
Db|0-00--2-3-3/6-5----------------------------------------|
pm
#7

eb|--------------------------------------------------------
Bb|--------------------------------------------------------
Gb|--------------------------------------------------------
Db|---7-----777--------7-----777--------7-----777----------
Ab|00-5-000-555-----00-5-000-555-----00-5-000-555----------
Db|00---000----5/9--00---000----73--00---000-----5/9------

pm pm. pm pm. pm pm.
eb|-------------------------------------------------------|
Bb|-------------------------------------------------------|
Gb|-------------------------------------------------------|
Db|10/12--12--1210--10/12--12--1210--1210--------------|
Ab|-8/10--10--108----8/10--10--108---108---------------|
Db|-------------------------------------------------------|

#8
eb|-------------------------------------------------------|
Bb|-------------------------------------------------------|
Gb|-------------------------------------------------------|
Db|-------------------------------------------------------|
Ab|-------------------------------------------------------|
Db|--0-----3~------0-----5~-------0-----6~----------------|


fill #1 #9
eb|----------|--------------------------------------------|
Bb|----------|--------------------------------------------|
Gb|----------|--------------------------------------------|
Db|----------|--------------------------------------------|
Ab|----------|--------------------------------------------|
Db|--9-----|-0--00--2h3--00--2h3-2h3--3p2--0------------|
pm pm

fill #2
eb|-------------------------------------------------------|
Bb|-------------------------------------------------------|
Gb|-------------------------------------------------------|
Db|-------------------------------------------------------|
Ab|-0-00------------0--00--0-0----------------------------|
Db|-0-00--2h3--3--0--00--0-0----------------------------|
pm pm

SOLO
eb|-------------------------------------------------------|
Bb|-10-10-10-10-10-10--8--7--8--7-------------------------|
Gb|-------------------------------9h10--7--7--9h10--7--7--|
Db|-------------------------------------------------------|
Ab|-------------------------------------------------------|
Db|-------------------------------------------------------|

Song orders is as follows:
Intro
#1; 3x /#2
#1; 3x /#3
#1; 3x /#2 (twice)
#4 /#5 /#4 /#6
#1 /#3
#1; 3x /#2 (twice)
#4 /#5 /#4 /#6
#7; 4x
#8; 16x ( slight rythm change on 5th and on last 4)
#5 /#4 (3x)
#5 /#6
#9; 12x ( solo begins after 4th )
fill #1 ( comes in at end of solo )
#9; 3x
fill#2
#9; 4x
Другие песни: