Dos MinutosAttaque Текст

0 Голосов
---------------------------------
attaque / dos minutos
---------------------------------

tabbed by carlos pino

intro x4
G]---------------------------------------------------------------------------
D]---------------------------------------------------------------------------
A]--3-3-3-3--5-6-5------------------------------------------------------
E]---------------------------------------------------------------------------

verse x4
G]---------------------------------------------------------------------------
D]---------------------------------------------------------------------------

A]-3-3-3-3--5-6-5-------------------------------------------------------
E]---------------------------------------------------------------------------

verse 2 x4
G]---------------------------------------------------------------------------
D]---------------------------------------------------------------------------
A]3-3-3-3-3-3-3---------------------------------------------------------
E]--------------------6-6-6-6-6-6-6----3-3-3-3-3-3-3---------------

verse
verse 2
verse
Другие песни: