DopeDie Mf Die Текст

0 Голосов
Haven't seen any tabs out for this song, so I thought I'd tab it out myself.


If you notice any errors let me know, I'd really appreciate it. Especially since im not too sure about
harmonics in this
song... but I put what I thought was close.

Peace

Tuning Info
#####################
1/2 step down, drop D

eb
Bb
Gb
Db
Ab
Db
#####################

Intro
Guitar 1
eb|------------------------------------------------------|
Bb|------------------------------------------------------|
Gb|------------------------------------------------------|
Db|30-0-030-0-0------------------------------------------|
Ab|30-0-030-0-0------------------------------------------|
Db|30-0-030-0-0------------------------------------------|
PM . ... . .

Guitar 2 (wait 4 beats till guitar 2 enters)
eb|------------------------------------------------------|
Bb|------------------------------------------------------|
Gb|------------------------------------------------------|
Db|--------------30-0-030-0-0----------------------------|
Ab|--------------30-0-030-0-0----------------------------|
Db|--------------30-0-030-0-0----------------------------|
PM . ... . . (wait 4 more beats then goto riff 1)

Rythem 1
Guitar 1 & 2
eb|------------------------------------------------------------------|
Bb|------------------------------------------------------------------|
Gb|------------------------------------------------------------------|
Db|30-0-030-0-03030-30-0-030-0-03030-30-0-030-0-03030-30-0-030-0-06--|
Ab|30-0-030-0-03030-30-0-030-0-03030-30-0-030-0-03030-30-0-030-0-06--|
Db|30-0-030-0-03030-30-0-030-0-03030-30-0-030-0-03030-30-0-030-0-06--|
PM . ... . ..... .. . ... . ..... .. . ... . ..... .. . ... . .

eb|---------------------------------------------------------------|
Bb|---------------------------------------------------------------|
Gb|---------------------------------------------------------------|
Db|30-0-030-0-03030-30-0-030-0-06--30-0-030-0-03030-30-0-030-0-03-|
Ab|30-0-030-0-03030-30-0-030-0-06--30-0-030-0-03030-30-0-030-0-03-|
Db|30-0-030-0-03030-30-0-030-0-06--30-0-030-0-03030-30-0-030-0-03-|
PM . ... . ..... .. . ... . . PM . ... . ..... .. . ... . .


Rythem 2
Guitar 1 & 2
eb|------------------------------------------------------------|REPEAT 2X
Bb|------------------------------------------------------------|
Gb|------------------------------------------------------------|
Db|---0-0-030----0-0-030----0-0-030----0-0-0-------------------|
Ab|---0-0-030----0-0-030----0-0-030----0-0-0-------------------|
Db|3~30-0-030-3~30-0-030-3~30-0-030-3~30-0-0(PAUSE FOR 1 BEAT)-|


Verse 1
Guitar 1 & 2
eb|-------------------------------------------------------|
Bb|-------------------------------------------------------|
Gb|-------------------------------------------------------|
Db|30-0-030-0-03--30-0-030-0-06--30-0-030-0-03--30-0-06-2-|
Ab|30-0-030-0-03--30-0-030-0-06--30-0-030-0-03--30-0-06-2-|
Db|30-0-030-0-03--30-0-030-0-06--30-0-030-0-03--30-0-06-2-|
PM . ... . . PM . ... . . PM . ... . . PM . .

eb|------------------------------------------------------------|
Bb|------------------------------------------------------------|
Gb|---------------------------------------------------------5--|
Db|30-0-030-0-03--30-0-030-0-06--30-0-030-0-03--30-0-030-0-05--|
Ab|30-0-030-0-03--30-0-030-0-06--30-0-030-0-03--30-0-030-0-03--|
Db|30-0-030-0-03--30-0-030-0-06--30-0-030-0-03--30-0-030-0-0---|
PM . ... . . PM . ... . . PM . ... . . PM . ... . .


Rythem 3
Guitar 1 & 2
eb|----------------------------------------------|
Bb|----------------------------------------------|
Gb|------------------------------------------5---|
Db|12-12-12-15-12-12-12-18-12-12-12-15-12-12-5-3-|
Ab|12-12-12-15-12-12-12-18-12-12-12-15-12-12-3-3-|
Db|12-12-12-15-12-12-12-18-12-12-12-15-12-12---3-|


Chorus
Guitar 1 & 2
eb|-------------------------------------------------------------------|
Bb|-------------------------------------------------------------------|
Gb|-------------------------------5-----------------------------------|
Db|3-0000-3-0000-6--3-0000-3-0000-5--3-0000-3-0000-6--30-0-030-0-0----|
Ab|3-0000-3-0000-6--3-0000-3-0000-3--3-0000-3-0000-6--30-0-030-0-0-*3-|
Db|3-0000-3-0000-6--3-0000-3-0000----3-0000-3-0000-6--30-0-030-0-0----|
PM.. PM.. PM.. PM.. PM.. PM.. PM . ... . .

eb|--------------------------------------------------------------|
Bb|--------------------------------------------------------------|
Gb|-------------------------------5------------------------------|
Db|3-0000-3-0000-6--3-0000-3-0000-5--3-0000-3-0000-6-30-0-030-0--|
Ab|3-0000-3-0000-6--3-0000-3-0000-3--3-0000-3-0000-6-30-0-030-0--|
Db|3-0000-3-0000-6--3-0000-3-0000----3-0000-3-0000-6-30-0-030-0--|
PM.. PM.. PM.. PM.. PM.. PM.. PM . ... .

*************Verse 2**************
Guitar 1 & 2
eb|-------------------------------------------------------|
Bb|-------------------------------------------------------|
Gb|-------------------------------------------------------|
Db|30-0-030-0-03--30-0-030-0-06--30-0-030-0-03--30-0-06-2-|
Ab|30-0-030-0-03--30-0-030-0-06--30-0-030-0-03--30-0-06-2-|
Db|30-0-030-0-03--30-0-030-0-06--30-0-030-0-03--30-0-06-2-|
PM . ... . . PM . ... . . PM . ... . . PM . .

eb|------------------------------------------------------------|
Bb|------------------------------------------------------------|
Gb|---------------------------------------------------------5--|
Db|30-0-030-0-03--30-0-030-0-06--30-0-030-0-03--30-0-030-0-05--|
Ab|30-0-030-0-03--30-0-030-0-06--30-0-030-0-03--30-0-030-0-03--|
Db|30-0-030-0-03--30-0-030-0-06--30-0-030-0-03--30-0-030-0-0---|
PM . ... . . PM . ... . . PM . ... . . PM . ... . .


Rythm 3*******************pre-chorus********************
Guitar 1 & 2
eb|----------------------------------------------|
Bb|----------------------------------------------|
Gb|------------------------------------------5---|
Db|12-12-12-15-12-12-12-18-12-12-12-15-12-12-5-3-|
Ab|12-12-12-15-12-12-12-18-12-12-12-15-12-12-3-3-|
Db|12-12-12-15-12-12-12-18-12-12-12-15-12-12---3-|


*****************Chorus****************
Guitar 1 & 2
eb|-------------------------------------------------------------------|
Bb|-------------------------------------------------------------------|
Gb|-------------------------------5-----------------------------------|
Db|3-0000-3-0000-6--3-0000-3-0000-5--3-0000-3-0000-6--30-0-030-0-0----|
Ab|3-0000-3-0000-6--3-0000-3-0000-3--3-0000-3-0000-6--30-0-030-0-0-*3-|
Db|3-0000-3-0000-6--3-0000-3-0000----3-0000-3-0000-6--30-0-030-0-0----|
PM.. PM.. PM.. PM.. PM.. PM.. PM . ... . .

eb|-------------------------------------------------------------------------|
Bb|-------------------------------------------------------------------------|
Gb|-------------------------------5-----------------------------------------|
Db|3-0000-3-0000-6--3-0000-3-0000-5--3-0000-3-0000-30-0-030-0--30-0-030-0-0-|
Ab|3-0000-3-0000-6--3-0000-3-0000-3--3-0000-3-0000-30-0-030-0--30-0-030-0-0-|
Db|3-0000-3-0000-6--3-0000-3-0000----3-0000-3-0000-30-0-030-0--30-0-030-0-0-|
PM.. PM.. PM.. PM.. PM.. PM.. PM . ... . PM . ... . .


Rythem 2
Guitar 1 & 2
eb|------------------------------------------------------------|REPEAT 2X
Bb|------------------------------------------------------------|
Gb|------------------------------------------------------------|
Db|---0-0-030----0-0-030----0-0-030----0-0-0-------------------|
Ab|---0-0-030----0-0-030----0-0-030----0-0-0-------------------|
Db|3~30-0-030-3~30-0-030-3~30-0-030-3~30-0-0(PAUSE FOR 1 BEAT)-|


Verse 3
Guitar 1 & 2
eb|-------------------------------------------------------|
Bb|-------------------------------------------------------|
Gb|-------------------------------------------------------|
Db|30-0-030-0-03--30-0-030-0-06--30-0-030-0-03--30-0-06-2-|
Ab|30-0-030-0-03--30-0-030-0-06--30-0-030-0-03--30-0-06-2-|
Db|30-0-030-0-03--30-0-030-0-06--30-0-030-0-03--30-0-06-2-|
PM . ... . . PM . ... . . PM . ... . . PM . .


Rythem 3(adlib)
Guitar 1 & 2
eb|-------------------------------------------------------|
Bb|-------------------------------------------------------|
Gb|-------------------------------------------------------|
Db|12-12-12-15-12-12-12-18-12-12-12-15-(WAIT 2 BEATS)-3-3-|
Ab|12-12-12-15-12-12-12-18-12-12-12-15----------------3-3-|
Db|12-12-12-15-12-12-12-18-12-12-12-15----------------3-3-|


Chorus
Guitar 1 & 2
eb|-------------------------------------------------------------------|
Bb|-------------------------------------------------------------------|
Gb|-------------------------------5-----------------------------------|
Db|3-0000-3-0000-6--3-0000-3-0000-5--3-0000-3-0000-6--30-0-030-0-0----|
Ab|3-0000-3-0000-6--3-0000-3-0000-3--3-0000-3-0000-6--30-0-030-0-0-*3-|
Db|3-0000-3-0000-6--3-0000-3-0000----3-0000-3-0000-6--30-0-030-0-0----|
PM.. PM.. PM.. PM.. PM.. PM.. PM . ... . .

eb|-------------------------------------------------------------------|
Bb|-------------------------------------------------------------------|
Gb|-------------------------------5-----------------------------------|
Db|3-0000-3-0000-6--3-0000-3-0000-5--3-0000-3-0000-6--30-0-030-0-0----|
Ab|3-0000-3-0000-6--3-0000-3-0000-3--3-0000-3-0000-6--30-0-030-0-0-*3-|
Db|3-0000-3-0000-6--3-0000-3-0000----3-0000-3-0000-6--30-0-030-0-0----|
PM.. PM.. PM.. PM.. PM.. PM.. PM . ... . .


Rythem 4 (outro)
Guitars 1 & 2
eb|---------------------------------------------------------------------------|
Bb|---------------------------------------------------------------------------|
Gb|-------------------------------5-------------------------------------------|
Db|3-0000-3-0000-6--3-0000-3-0000-5--3-0000-3-0000-30-0-030-*3--30-0-030-0-*5-|
Ab|3-0000-3-0000-6--3-0000-3-0000-3--3-0000-3-0000-30-0-030-----30-0-030-0----|
Db|3-0000-3-0000-6--3-0000-3-0000----3-0000-3-0000-30-0-030-----30-0-030-0----|
PM.. PM.. PM.. PM.. PM.. PM.. PM . ... PM . ... .

eb|-----------------------------|
Bb|-----------------------------|
Gb|-----------------------------|
Db|30-0-030-0-00--30-0-030-0-00-|
Ab|30-0-030-0-00--30-0-030-0-00-|
Db|30-0-030-0-00--30-0-030-0-00-|
PM . ... . .. .. . ... . ..
Другие песни: