Do As InfinityEnrai Текст

0 Голосов
Do As Infinity

Enrai
Standard Tuning
Tabbed by Alex Fragd (mavrick_45)
Mavrick_45@sugarray.com

I know this song doesn’t have a bass part, but for those of you who play bass
and feel left out, here you go!




Part one - 00:13
G------0----------------0----------------
D---------0-----2—2--------0—-2-2-2—-0---
A---3--------2-------3-------------------
E---------------0—0-----------0-0-0------


Part two
G------0----------------------------
D---------0-----2-2---5—5-5---------
A---3--------2---------------2/14---
E---------------0-0-----------------



Part one X4
Part two
Part one X2


Part Three
G---12---8---10---8---7-------7-------7---
D-------------------------7-------7---5---
A-----------------------------------------
E-----------------------------------------


Part one
Part two
Part one X2


Part Four
G------0----------------------------
D---------0—-2-2-2—-0-------0---5---
A---3-------------------3-----------
E------------0-0-0------------------


Part Three X2
Другие песни: