Дмитрий РевякинСмеялись дети Текст

0 Голосов
Intro:
e-------------------------------------------------------------------
b-------------------------------------------------------------------
g-4~6-----2-4-6------4-2--------------------------------------------
d-----2~4--------2-4-----2-4--4-5-7-4-2--2-0--2-0-------5-4-4-2-0-5-
a--------------------------------------------4----4-4--4------------
e-------------------------------------------------------------------

e-------------------------------------------------------------------
b-------------------------------------------------------------------
g-------------2-4---------------------------------------------------
d--4-2-4--4-5-----0-2--3--2--0-----5--3-5-3-2-0-3--3-1-0------------
a-------------------------------3------------------------3-2--------
e------------------------------------------------------------3?-----

D
...смехом свеченный,
G
Брызги звал извечь
Cm
В день чужих затей.
D
В скалах выгранил
G
Плески плеч твоих,
Cm
Чуб крылом задел.
D
Окольчуженный,
G
Цветом щек горчу, -
Cm
Падал горстью петь.
D
Неразгаданный,
G
Дно таила гать, -
Cm
Хвост рассек ступень.

D
Распятый в снах!
G7
Теперь никто не спросит,
Cm Fm D7
Как умел встречать дождями осень,
G7 Cm
Греть травой обрывы рек.
D
Брить тугой колчан ветрами,
G7
Долей брать ладонь ульчан,
Cm Fm D7
Прощать молвой, роднить тропой.
G7 Cm
Ребром телег.

D
Невестить перья по хребту
G
Коврами храбрым,
Cm
Заклинать лапту
D
В осколки мудрых "верь",
G
Вить гнезда
Cm
в голосах.
D
Был бы только взгляд подарен,
G
Как весной в дозор удалый
Cm
Сел озера отыскал в сухих глазах.

D
Смеялись дети нам в ответ
G7
И было так светло,
Cm Fm D7
Что вязью Вед темнели губы,
G7 Cm
Хлопьями пьянел закат.
D
Звенели алым небеса рябин,
G7
В волокнах талых стыл мазар
Cm Fm D7
Молчали ножны, сивый ус
G7 Cm
кусал казак

Outro:
e---------------------------------------------------------------------
b---------------------------6-8---6--------------6---8-8--6-------6-8-
g-5-7-8-8-7--5-4-5-7-8-5--8-----8---8-7-5--8-7-8---7--------8-7-5-----
d---------------------------------------------------------------------
a---------------------------------------------------------------------
e---------------------------------------------------------------------
Другие песни: