Дмитрий РевякинИволге петь (intro) Текст

0 Голосов
e -----------------------7----|--------------------|---------------------|----
b ---7-------8~--7------------|------7-8-10-8-7-0--|--------------------4|----
g -----9-7-9-------9-7-9------|---9--------------6~|X2------------4-5-7--|----
d ----------------------------|--------------------|--------4-5-7--------|----
a ----------------------------|--------------------|---------------------|----
E ----------------------------|--------------------|---------------------|----

e -----------------------------------------------------|-
b -5--6--6h8p6-5-6-6h8p6---5-6-5-----5-----------------|-
g ---------------------------------7---7--5---0—5/7-5--|-
d -----------------------------------------------------|-
a -----------------------------------------------------|-
E -----------------------------------------------------|-

e ---------------------------------------------|------8-8-----
b -5--6--6h8p6-5-6-6h8p6---5-6-5-----5---------|--------------
g ---------------------------------7---7--5----|--9-9-----9-9-
d ---------------------------------------------|-------------
a ---------------------------------------------|-------
E ---------------------------------------------|-------
Другие песни: