DisturbedVoices Текст

0 Голосов
Song Title: Voices

Artist: Disturbed
Album Title: The Sickness
()-Harmonic
P-Pull-Оff
Tuning-C#G#C#F#A#D#

Riff A with flanger
-2-4-2-4-2-4-
-------------
-------------
-------------
-------------
-------------

Riff B
--------------------
--------------------
--------------------
--------------------
-8-9-8-9-8-9-8-9-3--
-8-9-8-9-8-9-8-9-3--

Riff C
--------------------
--------------------
--------------------
--------------------
-8-9-8-9-8-9-8-9-(3)
-8-9-8-9-8-9-8-9-(3)

Riff D
-------------------
-------------------
-------------------
-------------------
-------------------
-8-9-8-9-8-9-8-9-3-

Riff E
-------------------
-------------------
------------------- Оn
------------------- -10-
------------------- Bend
-8-9-8-9-8-9-8-9-10

Riff F
-------------------
-------------------
-------------------
-------------------
-------------------
-3-2-5-0-2-3-------

Riff G
-------------------
-------------------
-------------------
-------------------
-------------------
-8-9-8-9-8-9-8-9---

Riff H
-------------------
-------------------
-------------------
-------------------
-3-2-7-5-3---------
-3-2-7-5-3---------

Riff I
-------------------
-------------------
-------------------
-5-P-0-3-P-0-2-P-О-
-------------------
-------------------

Riff J
-------------------
-------------------
-------------------
-(7)---------------
-------------------
-------------------
Другие песни: