DisturbedThe Game Текст

0 Голосов
Disturbed: Bass Tabulature

The Game

Tuning: A,D,A,D,G
Play Hint: Use an EQ for better sound.
Play Syle: Finger and Slap

Heavy Section
G|-----------------------------------|
D|-------------------1h2-------------|
A|----2--------1-------------2-----1-|
D|-0-----0--0-----0-------0-----0----|
A|-----------------------------------|
F F F F F F F F F F F

Verse
G|-------------------------------|
D|----2------------2-----2-------|
A|-0------0--3--0-----0-----0--3-|
D|-------------------------------|
A|-------------------------------|
F F F F F F F F F F

Chorus
G|---|
D|---|
A|---|
D|---|
A|-2-|
F

Play Note: Play Chorus to the beat.

Bridge
G|-----------------------------|
D|---------------------------4-|
A|-----------------------------|
D|-0--X-X--2--2--0--0--6-5-4---|
A|-----------------------------|
S S S S S S S S S S F

Bass Solo
G|--------------------------------------|
D|--------------------------------------|
A|------------------0-3-4-5-6-0-3-4-5-6-|
D|-0--X-X--2--2--0----------------------|
A|--------------------------------------|
S S S S S S S S S S S S S S S S

Outro
G|---|
D|---|
A|---|
D|---|
A|-5-|
F

Play Note: Play to the beat.
====
Другие песни: