Dire StraitsWhere Do You Think You`re Going (tab) Текст

0 Голосов
Where Do You Think You`re Going				


ACOUSTIC GUITAR INTRO:


E------0-0--0--0--0-0-0-0---0-|----1-1-1--1--1--1----1-1-1-|
B------1-1--1--1--1-1-1-1---1-|----1-1-1--1--1--1----1-1-1-|
G------2-2--2--2--2-2-2-2---2-|----2-2-2--2--2--2----2-2-2-|
D------2-2--2--2--2-2-2-2---2-|----3-3-3--3--3--3----3-3-3-|
A--0---0-0--0--0--0-0-0-0---0-|----3-3-3--3--3--3----3-3-3-|
E-------------------------0---|-1--1-1-1--1--1--1--1-1-1-1-|


E------3-3-----3-3-3-----------|---0-0-0-0--0--0--0-0-0-0----|
B------3-3-----3-3-3-----------|---0-0-0-0--0--0--0-0-0-0----|
G------4-4-----4-4-4-----------|---2-2-2-2--2--2--2-2-2-2----|
D------5-5-----5-5-5-----------|---2-2-2-2--2--2--2-2-2-2----|
A------5-5-----5-5-5-----------|---2-2-2-2--2--2--2-2-2-2----|
E--3---3-3--3--3-3-3-0-3^5^3^0-|-0-0-0-0-0--0--0--0-0-0-0-b3-|





ELECTRIC GUITAR RIFF:


A- F D- F
E---------------|------0^1^0------|------0^1^0-------|
B----0^1^0-------3--1-|-3----------3--1-|-2----------|
G----0^2^0-2--0-|-2----0^2^0------|------0^2^0-------|
D----------2--0-|-3----------3--2-|-3----------3--2-|-3----------|
A----------------------------|
E----------------------------|





FIRST SOLO:


A- F D- F
E------------------------------------|----------|
B-------------------------|----5^6^5---5---------|----------|
G--------7w^|^5^7-----5---5---5---5---|----------7---7^5---5-|------12w-|
D-----------|-------7---7---7---7---7-|-7----------------7---|-7--------|
A------------------------------------|----------|
E------------------------------------|----------|





SECOND SOLO:

A- F D- F
E--------------------------|
B-----------------------10-|
G------|------|----12w--12w^|^10^12----------------------------|
D------|--------|--------12^10----10-10--12^10-----|
A------12------------------|
E--------------------------|




A- F
E------------------------------------------------------------------|
B--------10-10-10-----10-10-----10-10-----10-|-13--13^10----10-13^10----10-13w-|
G--12w------------12w-------12w-------12w----12----------12--------|
D------------------------------------------------------------------|
A------------------------------------------------------------------|
E------------------------------------------------------------------|




D- F
E---------10-12^10----10---------------13^10----------10----------|
B-----13w----------13---13^10----|-10-13-10-----13-------13^10-13----13^10-13-|
G-----------------------------12-|----------12w-------------------------------|
D-----------------------------------------------------------------|
A-----------------------------------------------------------------|
E-----------------------------------------------------------------|



A- F D-
E-----------------------|----15w--|-13--13^15^13-15w-15w-15w-|
B--15w---15w---13-15-13--------------|
G------------------------------------|
D------------------------------------|
A------------------------------------|
E------------------------------------|




F A-
E--13-----------------12-----12-15-----15-|-----15-----15-----15-----15--------|
B-----15-13----13-15w----15w-------15w----|-15w----15w----15w----15w----w15-13-|
G-----------14-----------------------------------------------------|
D------------------------------------------------------------------|
A------------------------------------------------------------------|
E------------------------------------------------------------------|




F
E--15w--15w--w15-----
B--------------------
G--------------------
D--------------------
A--------------------
E--------------------
Другие песни: