Dire StraitsPlanet Of New Orleans (tab) Текст

0 Голосов
Planet of New Orleans - Dire Straits


The bars are very rough attemps to indicate rythm, but I`m pretty sure
they don`t match. Anyway, tabs are pretty useless without the original
music, so who cares.

A ">" or "12--------|-14>9-|-9>7>5-|-7-4>5-7-4>5----|
--12--14-12-14-|-12-14--------------12>14--|------|-------|----------------|
---------------|---------------------------|------|-------|----------------|
---------------|---------------------------|------|-------|----------------|


------------|---------------|-------|------------------|-------------------
------------|---------------|-------|------------15>10-|-10-15-12----------
-------9-7--|-----9-12>11-9-|-12>9--|-----12-14--------|-------------------
--7-10------|-12------------|-------|-12---------------|-------------------
------------|---------------|-------|------------------|-------------------
------------|---------------|-------|------------------|-------------------


-----------|-----------|--------12--
-12-13-10--|-12-13-15--|-13-15------
-----------|-----------|------------
-----------|-----------|------------
-----------|-----------|------------
-----------|-----------|------------

"Middle" solo. Begins at 4` 02".

---------------|--------------------|--------------------------------------
10-12-13-12-10-|-12-12-10-----------|-13-------7---7---7---8------------8--
---------------|-----------12
Другие песни: