Dimmu BorgirStormblast Текст

0 Голосов
__

| |
| |
D I M M U | | B О R G I R
____| |____
|____ ____|
| |
|__|
S T О R M B L ? S T


Riff 1
-------------------------------|
-------------------------------|
-------------------------------|
-7-7-7-7-7-7-5-2-2-2-2-2-2-----|

Riff 2
---------------------------------------------|
---------------------------------------------|
-7-7-7-7-7-7-7-8-7-5-5-5-5-5-5-2-2-2-5-5-5---|
---------------------------------------------|

Riff 3
------------------------------------------------|
------------------------------------------------|
-7-7-7-7-7-7-7-7-7-7-7-3-3-3-3-3-3-5-5-5-5-5-5--|
------------------------------------------------|

Riff 4
------------------------------------|
------------------------------------|
------------------------------------|
-5-5-5-5-5-5-0-0-0-1-1-1-1-3-3-3-3--|

Riff 5
------------------------------------|
------------------------------------|
-5-5-5-5-5-5-0-0-0-1-1-1-1-3-3-3-3--|
------------------------------------|

Riff 6
---------------------------------------------------------------------|
---2-------4--------5------4--------2-------4--------5---------------|
------------------------------------------------------------5--------|
-0---0--2-----2--3-----3-2----2---0---0--2-----2--3-----3------------|


Riff 7
-------------------------------|
-------------------------------|
-7--7-7-7-9-5-7-4-5---2--2-2-2-|
-------------------------------|

Riff 8
----------------------------------------|
----------------------------------------|
----------------------------------------|
-3--3-3-3-3--3-3--5--7--7-7-7-7--7-7-7--|

SОNG STRUCTURE:
Riff 1 x4
Riff 2 x2
Riff 1 x2
Riff 2 x2
Riff 3 x4
Riff 4 x4
Riff 5 x4
Riff 6 x4
Riff 3 x4
Riff 4 x4
Riff 5 x4
Riff 6 x2

Now repeat
Riff 7 x2
Riff 8 x2
fade...

/metal_up_your_ass@2die4.com

got the guitartab or corrections on mine? mail me......or else.....
this is the second version and it?s as correct as I can make it...
Другие песни: