Die Toten Hosen10 Kleine Jagermeister Текст

0 Голосов
Die Toten Hosen - 10 Kleine Jдgеrmеisтеr


[Intro]
G C D G
Ein kleiner Jдgеrmеisтеr war nich gern allein,
C D G C Am D G
drum lud er sich zum Weihnachtsfest neun Jдgеrmеisтеr ein.

[Zwischenspiel] (Basslauf)
E-----------------------------------------------------
H-----------------------------------------------------
G-----------------------------------------------------
D-------------------2-2----------------------2--------
A-----------2-5---5-----5-5----------2-5---5---5------
E---3---3----------------------3---3------------------

E-----------------------------------------------------
H-----------------------------------------------------
G-----------------------------------------------------
D-------------------2-2------------------2------------
A-----------2-5---5-----5-5----------2-5---5-2--------
E---3---3----------------------3---3-----------3------

[Strophe]
G
Zehn kleine Jдgеrmеisтеr rauchten einen Joint.
C G D G
Den einen hat es umgehaun, da waren's nur noch neun.

Neun kleine Jдgеrmеisтеr wollten gerne erben.
Damit es was zu erben gab, musste einer sterben.
Acht kleine Jдgеrmеisтеr fuhren gerne schnell.
Sieben fuhren nach Dьssеldоrf, einer fuhr nach Кцln.

[Refrain]
G D
Einer fьr alle, alle fьr einen.
(D) G
Wenn einer fort geht, wer wird denn gleich weinen.
(G) C
Einmal trifft's jeden, дrgеr' dich nicht.
(C) D G
So geht's im Leben: Du oder ich.

[Strophe]
Sieben kleine Jдgеrmеisтеr warn beim Rendezvous.
Bei einem kam ganz unverhofft der Ehemann hinzu.
Sechs kleine Jдgеrmеisтеr wollten Steuern sparen.
einer wurde eingelocht, fьnf durften nachbezahlen.
Fьnf kleine Jдgеrmеisтеr wurden kontrolliert.
Ein Polizist nahm's zu genau, da war's sie noch zu viert.

[Refrain]
Einer fьr alle, alle fьr einen.
Wenn einer fort geht, wer wird denn gleich weinen.
Einmal trifft's jeden, дrgеr' dich nicht.
So geht's im Leben: Du oder ich.
C G D G A B C
Einmal muss jeder gehen, auch wenn dein Herz zerbricht.
(C) G D G
Davon wird die Welt nicht untergehen. Mensch, дrgеrе dich nicht.

[Strophe]
Vier kleine Jдgеrmеisтеr bei der Bundeswehr:
Sie tranken um die Wette, den besten gibt's nicht mehr.
Drei kleine Jдgеrmеisтеr gingen ins Lokal.
Dort gab's Zwei Steaks mit Bohnen und eins mit Rinderwahn.
Zwei kleine Jдgеrmеisтеr baten um Asyl.
einer wurden angenommen, der andere war zuviel.

[Refrain]
Einer fьr alle, alle fьr einen.
Wenn einer fort geht, wer wird denn gleich weinen.
Einmal trifft's jeden, дrgеr' dich nicht.
So geht's im Leben: Du oder ich.
Einmal muss jeder gehen, auch wenn dein Herz zerbricht.
Davon wird die Welt nicht untergehen. Mensch, дrgеrе dich nicht.

[Schluss] (Ваrrй-Griffe)
A
Ein kleiner Jдgеrmеisтеr war nicht gern allein,
D A
drum lud er sich zum Osterfest neun neue Meister ein.

E-------------------5---
H---------5---------5---
G------6-----6------6---
D---7---------------7---
A-------------------7---
E-------------------5---
Другие песни: