DeusHotellounge Текст

0 Голосов
Hotellounge - dEUS


original tab by Avi, Nadja Weber, Andrej Bodrow and Marko Baale
Uploaded by ItzikG (itzik@manics.co.il)

Intro -
________________
/ repeat
G|-------|----------|-----------|----------|----------|
D|-------|----------|--------11-|----------|----------|
A|-12-12-|-12-12-12-|-12-9-9-9--|-9-9-9...-|-8-8-8...-|
E|-------|----------|-----------|----------|----------|

Verse -
________
/ repeat
G|-------|----------|----------|-----------|----------|----------|
D|-------|-------14-|----------|--------11-|----------|----------|
A|-12-12-|-12-12-12-|-12-12-12-|-12-9-9-9--|-9-9-9...-|-8-8-8...-|
E|-------|----------|----------|-----------|----------|----------|

Chorus (?cause that?s so hard...?) -
G|-------------6---|
D|-----------7---7-|
A|-5-5-5-5-5-------|
E|-----------------|

?cause if it all...? -
G|----------|
D|----------|
A|-2-2-2...-|
E|----------|

then over that beautiful guitar riff -
G|-------------|
D|-------------|
A|--12/19hold--|
E|-------------|

?You move me? bit -
G|------|------|------|------|
D|------|------|------|------|
A|-0...-|-5...-|-0...-|-7...-|
E|------|------|------|------|

?cause if it all comes to this...? -
G|----------|------|------|
D|----------|------|------|
A|-2-2-2...-|-9...-|-8...-|
E|----------|------|------|
Другие песни: