ДетидетейЯ - твои сны Текст, аккорды

0 Голосов
Гитара 1:
3 раза Много раз :)
E||----------------------------|--------------------------|----------------------------||
B||----------------------------|--------------------------|----------------------------||
G||*--------------------------*|--------------------------|*--------------------------*||
D||*--------------------------*|--------------------------|*--------------------------*||
A||----------------------------|--------------------------|----------------------------||
E||---3--3--3--3--3--3--3--3---|--3--3--3--3--3--3--3--6--|---3--6--3--3--3--3--3--6---||

Гитара 2:
E||-----|-----|-----|-----|------|------|------|------|------|-------------------------|
B||-----|-----|-----|-----|------|------|------|------|------|-------------------------|
G||-----|-----|-----|-----|------|------|------|------|------|----------------------5--|
D||-----|-----|-----|-----|------|------|------|------|------|--5----7----8----(7)-----|
A||-----|-----|-----|-----|------|------|------|------|------|-------------------------|
E||-----|-----|-----|-----|------|------|------|------|------|-------------------------|

7 раз
|--------------------------||--------------------------|--------------------------||
|--------------------------||--------------------------|--------------------------||
|--x-----x-----x-----------||*----------------------5--|--x-----x-----x----------*||
|-----8-----7-----5--5--5--||*-------7----8----(7)-----|-----8-----7-----5----5--*||
|--------------------------||--------------------------|--------------------------||
|--------------------------||--------------------------|--------------------------||

4 раза
|---------------------------|--------------------------|---------------------------||
|---------------------------|--------------------------|---------------------------||
|*--7--7--7--7--7--7--7--7--|--7--7--7--7--7--7--7--7--|--7--7--7--7--7--8--7--5--*||
|*--------------------------|--------------------------|--------------------------*||
|---------------------------|--------------------------|---------------------------||
|---------------------------|--------------------------|---------------------------||

Гитара 1:
E||----------------------------------|----------------------------------|---------------------------------|
B||----------------------------------|----------------------------------|---------------------------------|
G||----------------------------------|----------------------------------|---------------------------------|
D||----------------------------------|----------------------------------|---------------------------------|
A||----------------------------------|----------------------------------|---------------------------------|
E||--10--10--10--10--10--10--10--10--|--10--10--10--10--10--10--10--10--|--8--10--10--10--10--10--10--10--|

|----------------------------------|...
|----------------------------------|...
|----------------------------------|...
|----------------------------------|...
|----------------------------------|...
|--10--10--10--10--10--10--10--10--|...

А она ему говорит:
-Я…
Я.
Я.
Тв.
Яяя. Яяя.
Твои.
Я твои
Сны.
Потерпи меня до утра.
Потерпи меня до утра.
Потерпи.
Я твои сныыы.
Я.
Другие песни: