Дети PicassoДи Каприо Текст

0 Голосов
А

Моей соседке Леночке плохо
Она полюбила в тонконогого лоха
Е
Леонардо ДиКаприо из Голливуда
А он о ней не знает даже вот паскуда
Н7 А
Where ever you are
Е
Mother fucker
Е
Моей соседке Светочке плохо
Она полюбила в толстоногого лоха
А
Николая Баскова из Гомелева
А он о ней не знает ему и так клево
Н7 А
Where ever you are
Е
Mother fucker
Mother fucker

После 2 куплета идет “рок-н-ролльный квадрат”
1-------|
2|------1-----|---1-3-4-3-1--|
3|---0-2—2-0--|---0-2-3-2-0--|--2---------2-|
4|--2-------2-|--2---------2-|-3------------|
5|-3----------|-3------------|
6-------|

1------|
2|------1-----|------1------|
3|---0-2-2-0--|---0-2--2----|
4|--2-------2-|--0-2-3-2-0--|--2------2---|
5|-3----------|-2---------2-|-3---------3-|
6|3--------------|

Моей соседке Зиночке плохо
Она полюбила тонконогого лоха
Леонардо ДиКаприо из Голливуда
А он о ней не знает ему и так круто.
Where ever you are
Where ever you are
Where ever you are
Mother fucker

Песню лучше играть в две гитары:
1 гитара аккорды,
2 гитара рок-н-ролльный квадрат
Другие песни: