Deliriou5Come Like You Promise Текст

0 Голосов
This is a really great bass line when its played fast

and it just repeats itself 4 most of the song.

g|----------------------------------------------|
d|---------4-5-4-0------------4-5-4-0-----------|
a|-----------------3-2----------------3-2-------|
e|--3-3-----------------3-3---------------3-3---|

there is one change but its played at the same speed.

g|-----------------------------------------------|
d|---------5-4-0------------5-4-0----------------|
a|-------3-------3-2-------3------3-2------------|
e|--3-----------------3---------------3----------|

after that its just back to the first one. any corrections or anything send to
damcc3@hotmail.com
Другие песни: