DeicideBlame It On God Текст

0 Голосов
band- deicide

title- blame it on god
tuning- tune down half step
transcribed by- giddian (giddian_danials@yahoo.com)

notation- pm = ...
slide back = ///
slide forward =

comments- ..and that's all you really need
to know. the numbers like on riff
a1, shown together.. you tremelo
pick those. any questions on this
tab, feel free to e-mail me.
listen to the song for exact timing.
it was tabbed by ear, so if there
is any errors, send me the corrections.
until next time, blame it on god!!

(intro) (this goes until 0:05min)
-------------------------------------
-------------------------------------
-------------------------------------
-------------------------------------
-7---5-7-8---7-8-10--9-1112---9--4-
-5---3-5-6---5-6-8---7-9-10---7--2-


(riff a1)
------------------------------------------------------
------------------------------------------------------
------------------------------------------------------
------------------------------------------------------
------------------------------------------------------
-6666--0000--5555--0000--3333--0000--2222--0000--1111-


(riff b1)
------------------------------------------------------
------------------------------------------------------
------------------------------------------------------
------------------------------------------------------
------------------------------------------------------
-0000--112222--0000--223333--0000--445555--22-666-222-


(riff a2)
-------------------------------------
-------------------------------------
-------------------------------------
-------------------------------------
-------------------------------------
-0--1-4-1-4444-00000000---1-4-1-0000-
..... .....

(riff b2)
-----------------------------------------------------------------------
--------------------------------------------------------------5555-----
---------------------------------------------3333--6-3--6-3-6------6--
--------------------------22222--5-2--5-2-5----------------------------
-1-4-1-4444-11111--4-1-4-----------------------------------------------
-----------------------------------------------------------------------
..... ..... ..... .....


(riff a3)
-----------------------------
-----------------------------
-----------------------------
-----------------------------
------------3333-------------
--0000-1-2-------1111--00000-
...

(riff b3)
-----------------------------
-----------------------------
-----------------------------
-----------------------------
------------5555-------------
--2222-3-4--------3333--2222-
Другие песни: