DeftonesWhen Girls Telephone Boys Текст

0 Голосов
-------------------------------------------------------------------------------

When Girls Telephone Boys - Deftones
-------------------------------------------------------------------------------

Tabbed by: Cross
6/05/03
Email:xcrossx1@yahoo.com
I finally decided to release my tabs to the public (check the bottom for the
reason why I didn't in the first place).

Tuning:Here is Stephen's REAL tuning G#,C#,F#,B,E,G#,C#. Thats 4 1/2 steps down
from regular tuning and 2 1/2 steps down for 7 string. I play these on a regular
Guitar so I don't have the extra C# but it still sounds 99-100% correct.


Verse
There are no open strings during the verse thats just Frank.
C#|--------------------------------------------------------------------------|
G#|--------------------------------------------------------------------------|
E |--------------------------------------------------------------------------|
B |-8-8-8-8-8-8-8-8-8-8-8-8-8-8-8-8/11-11-11-11-11-11-11-11-11-11-11-11-11-11|
F#|-8-8-8-8-8-8-8-8-8-8-8-8-8-8-8-8/11-11-11-11-11-11-11-11-11-11-11-11-11-11|
C#|-6-6-6-6-6-6-6-6-6-6-6-6-6-6-6-6/-9--9--9--9--9--9--9--9--9--9--9--9--9--9|
G#|--------------------------------------------------------------------------|


C#|--------------------------------------------------------------------------|
G#|--------------------------------------------------------------------------|
E |--------------------------------------------------------------------------|
B |-11-11-12-12-12-12-12-12-12-12-12-12-12-12-12-12-12-12-12-12-12-12-12-12--|
F#|-11-11-12-12-12-12-12-12-12-12-12-12-12-12-12-12-12-12-12-12-12-12-12-12--|
C#|--9--9-10-10-10-10-10-10-10-10-10-10-10-10-10-10-10-10-10-10-10-10-10-10--|
G#|--------------------------------------------------------------------------|

C#|--------------------------------------------------------------------------|
G#|--------------------------------------------------------------------------|
E |--------------------------------------------------------------------------|
B |-12-12-12-12-12-12-12-12-12-12-13-13-13-13-13-13-13-13-13-13-13-13-13-13--|
F#|-12-12-12-12-12-12-12-12-12-12-13-13-13-13-13-13-13-13-13-13-13-13-13-13--|
C#|-10-10-10-10-10-10-10-10-10-10-11-11-11-11-11-11-11-11-11-11-11-11-11-11--|
G#|--------------------------------------------------------------------------|

C#|--------------------------------------------------------------------------|
G#|--------------------------------------------------------------------------|
E |--------------------------------------------------------------------------|
B |-13-13-13-13-13-13-13-13-13-13-13-13-13-13-13-13-13-13--------------------|
F#|-13-13-13-13-13-13-13-13-13-13-13-13-13-13-13-13-13-13--------------------|
C#|-11-11-11-11-11-11-11-11-11-11-11-11-11-11-11-11-11-11--------------------|
G#|--------------------------------------------------------------------------|

Slide into the chorus 162

Chorus
P.M x x x x x
C#|--------------------------------------------------------------------------|
G#|--------------------------------------------------------------------------|
E |--------------------------------------------------------------------------|
B |--------------------------------------------------------------------------|
F#|-4-4-4-4--4--4--4---54---4--4--4--4--4-----------------------------------|
C#|-4-4-4-4--4--4--4---54---4--4--4--4--4-----------------------------------|
G#|-2-2-2-2--2--2--2---32p0-2--2--2--2--2-----------------------------------|

P.M x x x x x
C#|--------------------------------------------------------------------------|
G#|--------------------------------------------------------------------------|
E |--------------------------------------------------------------------------|
B |--------------------------------------------------------------------------|
F#|-4-4-4-4--4--4--4---54---4--4--4--4--5-----------------------------------|
C#|-4-4-4-4--4--4--4---54---4--4--4--4--5-----------------------------------|
G#|-2-2-2-2--2--2--2---32p0-2--2--2--2--3-----------------------------------|

P.M x x x x x
C#|--------------------------------------------------------------------------|
G#|--------------------------------------------------------------------------|
E |--------------------------------------------------------------------------|
B |--------------------------------------------------------------------------|
F#|-4-4-4-4--4--4--4---54---4--4--4--4--4-----------------------------------|
C#|-4-4-4-4--4--4--4---54---4--4--4--4--4-----------------------------------|
G#|-2-2-2-2--2--2--2---32p0-2--2--2--2--2-----------------------------------|



P.M x x x x x
C#|--------------------------------------------------------------------------|
G#|--------------------------------------------------------------------------|
E |--------------------------------------------------------------------------|
B |--------------------------------------------------------------------------|
F#|-4-4-4-4--4--4--4---54---4--4--4--4--5-----------------------------------|
C#|-4-4-4-4--4--4--4---54---4--4--4--4--5-----------------------------------|
G#|-2-2-2-2--2--2--2---32p0-2--2--2--2--3-----------------------------------|


Breakdown

C#|--------------------------------------------------------------------------|
G#|--------------------------------------------------------------------------|
E |--------------------------------------------------------------------------|
B |-17-17-17-17-17-17-17-17-17-17-17-17-17-17-17-17-17-17-17-17-17-17-17-17--|
F#|--------------------------------------------------------------------------|
C#|-15-15-15-15-15-15-15-15-15-15-15-15-15-15-15-15-15-15-15-15-15-15-15-15--|
G#|--------------------------------------------------------------------------|

C#|--------------------------------------------------------------------------|
G#|--------------------------------------------------------------------------|
E |--------------------------------------------------------------------------|
B |-17-17-17-17-17-17-17-17-1716-16-16-16-16-16-16-16-16-16-16-16-16-16-16--|
F#|--------------------------------------------------------------------------|
C#|-15-15-15-15-15-15-15-15-1514-14-14-14-14-14-14-14-14-14-14-14-14-14-14--|
G#|--------------------------------------------------------------------------|

C#|--------------------------------------------------------------------------|
G#|--------------------------------------------------------------------------|
E |--------------------------------------------------------------------------|
C#|-16-16-16-16-16-16-16-16-16-1614-14-14-1413-13-13-13--------------------|
G#|--------------------------------------------------------------------------|
Eb|-14-14-14-14-14-14-14-14-14-1412-12-12-1211-11-11-11--------------------|
G#|--------------------------------------------------------------------------|

C#|--------------------------------------------------------------------------|
G#|--------------------------------------------------------------------------|
E |--------------------------------------------------------------------------|
B |-17-17-17-17-17-17-17-17-17-17-17-17-17-17-17-17-17-17-17-17-17-17-17-17--|
F#|--------------------------------------------------------------------------|
C#|-15-15-15-15-15-15-15-15-15-15-15-15-15-15-15-15-15-15-15-15-15-15-15-15--|
G#|--------------------------------------------------------------------------|

C#|--------------------------------------------------------------------------|
G#|--------------------------------------------------------------------------|
E |--------------------------------------------------------------------------|
B |-17-17-17-17-17-17-17-17-1716-16-16-16-16-16-16-16-16-16-16-16-16-16-16--|
F#|--------------------------------------------------------------------------|
C#|-15-15-15-15-15-15-15-15-1514-14-14-14-14-14-14-14-14-14-14-14-14-14-14--|
G#|--------------------------------------------------------------------------|

C#|--------------------------------------------------------------------------|
G#|--------------------------------------------------------------------------|
E |--------------------------------------------------------------------------|
B |-16-1614-14-14-14-14-14-14-14-14-1413-13-13-13-13-13--------------------|
F#|--------------------------------------------------------------------------|
C#|-14-1412-12-12-12-12-12-12-12-12-1211-11-11-11-11-11--------------------|
G#|--------------------------------------------------------------------------|



Song Structure:
Verse x2
Chorus x4
verse x2
Chorus x6
Breakdown
Chorus till the song ends.

P.S. I would like to send out a BIG Fuck You to all you faggots that stole
credit for my old tabs.
Fuck You:
Cenif (this guy deserves a MEGA FUCK YOU) cenif@hotmail.com
Miguel Gаrzуn knick_knack_666@hotmail.com
SAM ROWLANDS dead_evil4@hotmail.com You NUTT BITING FAGGOTS
There were more but I guess reporting they're asses got them taken off before
I could get there info, Thieving biatchez.

| / slide up
| slide down
| h hammer-on
| p pull-off
| ~ vibrato
| + harmonic
| x Palm Mute note

===============================================================================
Другие песни: