DeftonesRoot Текст

0 Голосов
Root is a kick ass song with a good bass line.

Standard Tuned Bass

Intro
G-------|
D-------|
A-------|
E-00-00-|

Main Riff
G--------------------------------------------|
D----22-------00-----------------------------|
A-------22-33----33-22-----------------------|
E-00-------------------33--------------------|

Bridge
G----------------------|
D----------------------|
A----------------------|
E-0-0000-0-0000-0-0xx0-|

Solo
G----99---------77-------------|
D-------99-1010----1010-99-----|
A-77-----------------------1010|
E------------------------------|

Riff 1
G------------------------------------|
D------------------------------------|
A------------------------------------|
E-65-5/4-4/3-3/2-2/1/2-0000-1-00101-|

Riff 2
G-------------|-------------|--------------|
D-------------|-------------|--------------|
A-------------|-------------|--------------|
E-0-1-4-5-4-1-|-0-1-4-5-4-1-|-0-0-0--0-0-0-|

Riff 3
G-----6-7-6--|-----6-7-6---|-------------|
D-7-8-------8|-7-8-------8-|-------------|
A------------|-------------|-------------|
E------------|-------------|-0-0-0--0-0-0|

Ending
G---------|
D---------|
A---------|
E-1-1-1-0-|

Riff Order
Intro x=1
Main Riff x=4
Bridge x=1
Solo x=8
Main Riff x=4
Solo x=8
Main Riff x=4
Riff 1 x=4
Riff 2 x=2
Riff 3 x=2
Ending x=1


Tabbed By Volcom321@msn.com
Email Me If You Need Any Tabs!
Другие песни: