DeftonesPlease Please Please Текст

0 Голосов
Please Please Please, Let Me Get What I want 
Deftones/The Smiths
Performed Live
Tab by James Copley (jcopley18@hotmail.com)
Dropped D

Here are the main riffs to the song

A.
G|-------------------------
D|-------------------------
A|-------------------------
D|-0-0-0-0-0-0-7-7-7-7-7-7-

B.
G|---------------------------------
D|---------------------------------
A|---------------------------------
D|-4-4-4-4-5-5-5-5-7-7-7-7-7-7-5-4-

C.
G|--------------------------------
D|--------------------------------
A|--------------------------------
D|-5-5-5-5-7-7-7-7-1-0-5--5-5-5-5-

D.
G|-----------------------------
D|-----------------------------
A|-----------------------------
D|-5-5-5-5-7-7-7-7-??-??-??-??-

dammit i kan't figure those last notes out that are in the ??
Send them to me if you figure them out. this tab is fucked up, I
know but i was short on time doing it.
Другие песни: