DeftonesFireal Текст

0 Голосов
Title: FIREAL
BAND: Deftones
Cd: Adrenaline

This song is pretty easy...I'm not gonna tab in full explaination just
a rough outline...

TUNING:g
d
a
e

(RIFF a)
----|------------------------------------------------------------------
---*|------------------------------------------------------------------
---*|---7(hold)--5--------------------2--------------------2-----------
-0--|-7------------6-3(hold)--3(hold)---2-3(hold)--3(hold)---2-3(hold)-

-------------------|-
-------------------|* Repeat x3(?)
-------------------|*
--3(hold)--0(hold)-|-

(RIFF b)Screaming......
-|---------------------|--------------|---------------------|-
*|---------------------|*- Repeat x3 -|---------------------|-
*|---------------------|*-------------|---------------------|-
-|-2-2-2-3-3-3-2(hold)-|--------------|-2-2-2-3-3-3-1(hold)-|-

--------------------------------------------------------------
--------------------------------------------------------------
-------------------2--------------------2---------------------
--3(hold)--3(hold)---2-3(hold)--3(hold)---2-3(hold)--0(hold)--
RIFF a
RIFF b x3

(RIFF c)
-|---------------------------------------------------------
*|---------------------------------------------------------
*|-6-6-6-6-6-6-6-6-10-10-10-10-10-10-10-10-0--0-0--0--0-0--
-|---------------------------------------------------------

---------------------|-
---------------------|* Repeat x4
-3-3-3-6-5--5-5--3-3-|*
---------------------|-

(RIFF d)
-|-------------------------------------------------
*|-------------------------------------------------
*|-6-6-6-6-6-6-6-6-8-8-8-8-8-8-8-8-0--0-0--0--0-0--
-|-------------------------------------------------

---------------------|-
---------------------|* Repeat x2
-3-3-3-6-5--5-5--3-3-|*
---------------------|-

-|---------------------------------------------------------
*|---------------------------------------------------------
*|-6-6-6-6-6-6-6-6-10-10-10-10-10-10-10-10-0--0-0--0--0-0--
-|---------------------------------------------------------

---------------------|-
---------------------|* Repeat x2
-3-3-3-6-5--5-5--3-3-|*
---------------------|-

-|-------------------------------------------------
*|-------------------------------------------------
*|-6-6-6-6-6-6-6-6-8-8-8-8-8-8-8-8-0--0-0--0--0-0--
-|-------------------------------------------------

---------------------|-
---------------------|* Repeat x2
-3-3-3-6-5--5-5--3-3-|*
---------------------|-

-|---------------------------------------------------------
*|---------------------------------------------------------
*|-6-6-6-6-6-6-6-6-10-10-10-10-10-10-10-10-0--0-0--0--0-0--
-|---------------------------------------------------------

---------------------|-
---------------------|* Repeat x2
-3-3-3-6-5--5-5--3-3-|*
---------------------|-

-|-------------------------------------------------
*|-------------------------------------------------
*|-6-6-6-6-6-6-6-6-8-8-8-8-8-8-8-8-0--0-0--0--0-0--
-|-------------------------------------------------

---------------------|-
---------------------|* Repeat x2
-3-3-3-6-5--5-5--3-3-|*
---------------------|-


That Should be all of the Song...if not keep rotating RIFF c & D
Later, ODIUM 98
Другие песни: