DeftonesChanger In The House Of Flies Текст

0 Голосов
This is a great song i love it and im sure you do as well

so heres the tab everyone want.Y ou must turn your guitar down a full
step the drop the low E to D(C-G-C-F-A-D).then your set!

INTRO:

D|--------------------------------------------------|
A|--------------------------------------------------|
F|--10-10-10-10-10-10-10-10-10-10-10-10-10-10-10----|
C|--------------------------------------------------|
G|---8--8--8--8--8--8--8--8--8--8--8--8--8--8--8-0--|
C|---0-----------------------0--0-----0--0-----0-0--|


D|-----------------------------------|
A|-----------------------------------|
F|-----------------------------------|
C|--------8-8-8-7-----8-8-8-8-7-7-7--|
G|--5-5-5-5-5-5-5-5-5-5-5-5-5-5-5-5--|
C|--5-5-5-5-5---------------5-5-5-5--|

D|-------------------------------------------------|
A|-------------------------------------------------|
F|----------10-10-10-10-10-10-10-10-10-10-10-10----|
C|-------------------------------------------------|
G|-----------8--8--8--8--8--8--8--8--8--8--8--8-0--|
C|--0-0-0-0--0--0--0--0--0--0-----------0--0--0-0--|

D|----------------------------------|
A|----------------------------------|
F|----------------------------------|
C|-------8-8-8-7-7-7-8-8-8-8-8-8-7--|
G|--5--5-5-5-5-5-5-5-5-5-5-5-5-5-5--|
C|--5--5-5-5-5-5-5-5-5-5-5-5-5-5-0--|


1ST AND SECOND VERSES:

D|-----------------------------------------------|
A|-----------------------------------------------|
F|--------10-10-10-10-10-10-10-10-10-10-10-10----|
C|-----------------------------------------------|
G|---------8--8--8--8--8--8--8--8--8--8--8--8-0--|
C|--0-0-0--0--0--0--0--0--0--0--0--0--0--0--0-0--|

D|-----------------------------------|
A|-----------------------------------|
F|-----------------------------------|
C|--------8-8-8-7-7-7-8-8-8-8-7-7-7--|
G|--5-5-5-5-5-5-5-5-5-5-5-5-5-5-5-5--|
C|--5-5-5-5-5-5-5-5-5-5-5-5-5-5-5-5--|

1ST AND SECOND CHORUSES:

D|-----------------------------------|
A|-----------------------------------|
F|--7-7-7-7-7-7-7-7-7-7-7-7-7-7-7-7--|
C|--7-7-7-7-7-7-7-7-7-7-7-7-7-7-7-7--|
G|--5-5-5-5-5-5-5-5-5-5-5-5-5-5-5-5--|
C|--0-0-0-0-0-0-0-0-0-0-0-0-0-0-0-0--|

D|----------------------------------------------------|
A|-----------10-10-10----------10-10-10---------------|
F|-----------10-10-10----------10-10-10---------------|
C|--10-10-10-10-10-10-10-10-10-10-10-10-10-10-10-10--|
G|---8--8--8--8--8--8--8--8--8--8--8--8--8--8--8--8--|
C|---8--8--8--8--8--8--8--8--8--8--8--8--8--8--8--8--|

1ST AND 2ND BRIDGES: (around 2:08 and also 3:52)

D|----------------------------|
A|----------------------------|
F|--5--5-5-5--5--5-5--5-5--5--|
C|--3--3-3-3--3--3-3--3-3--3--|
G|--3--3-3-3--3--3-3--3-3--3--|
C|--3--3-3-3--3--3-3--3-3--3--|

D|-----------------------------------|
A|-----------------------------------|
F|--7-7-7-7-7-7-7-7-7-7-7-7-7-7-7-7--|
C|--7-7-7-7-7-7-7-7-7-7-7-7-7-7-7-7--|
G|--5-5-5-5-5-5-5-5-5-5-5-5-5-5-5-5--|
C|--0-0-0-0-0-0-0-0-0-0-0-0-0-0-0-0--|

3RD VERSE:

D|-------------------------------------------------------------|
A|-------------------------------------------------------------|
F|-------------------------------------------------------------|
C|------------------------------------8-8-8-7-7-7-------7-7----|
G|--8--- let ring for one bar --5-5-5-------------8-8-8-----8--|
C|--0---------------------------5-5-5--------------------------|

3RD CHORUS:

Play these two lines four times

D|--------------------------------------------------|
A|--------------------------------------------------|
F|--10-10-10-10-10-10-10-10-10-10-10-10-10-10-10----|
C|-----------------------------------------------0--|
G|---8--8--8--8--8--8--8--8--8--8--8--8--8--8--8-0--|
C|---0--0--0--0--0--0--0--0--0--0--0--0--0--0--0-0--|

D|------------------------------------|
A|------------------------------------|
F|------------------------------------|
C|--7-7-7-8-8-8-7-7-7-8-8-8-7-7-7-----|
G|--5-5-5-5-5-5-5-5-5-5-5-5-5-5-5-5/--|
C|--5-5-5-5-5-5-5-5-5-5-5-5-5-5-5-5/--|

Then play these two lines four times


D|-----------------------------------|
A|-----------------------------------|
F|--7-7-7-7-7-7-7-7-7-7-7-7-7-7-7-7--|
C|--7-7-7-7-7-7-7-7-7-7-7-7-7-7-7-7--|
G|--5-5-5-5-5-5-5-5-5-5-5-5-5-5-5-5--|
C|--0-0-0-0-0-0-0-0-0-0-0-0-0-0-0-0--|

D|----------------------------------------------------|
A|-----------10-10-10----------10-10-10---------------|
F|-----------10-10-10----------10-10-10---------------|
C|--10-10-10-10-10-10-10-10-10-10-10-10-10-10-10-10--|
G|---8--8--8--8--8--8--8--8--8--8--8--8--8--8--8--8--|
C|---8--8--8--8--8--8--8--8--8--8--8--8--8--8--8--8--|

OUTRO:

Similar to the verse riffs

And thats it with a little practice you can be just as good
as your mom said you could be! for any other songs you might
me to tab out 4 you e-mail me at boobob420 @aol.com
Другие песни: