Deep PurpleSmoke On The Water (intro) Текст

0 Голосов
Intro:
e|------------|
B|------------|
G|------------|
D|-5--8--10---|
A|-5--8--10---|
E|-3--6--8----|

e|---------------|
B|---------------|
G|---------------|
D|--5--8--11-10--|
A|--5--8--11-10--|
E|--3--6--9--8---|

e|-------------------|
B|-------------------|
D|-------------------|
G|--5--8--10----8-5--|
A|--5--8--10----8-5--|
E|--3--6--8-----6-3--|
Другие песни: