DeathFlattening Of Emotions Текст

0 Голосов
DEATH - FLATTENING OF EMOTIONS

From the album HUMAN
Copyright Relativity 1991

Version 2.1 - March 1997

Transcribed by: Jay Siebert(sieberte@iaw.com)

Small Corrections and Reviewing done by the following people:
Robin van der Harst(deathtab@concepts.nl)
Richard Broadhead II()
David Hatfield(d32hatfield@hotmail.com)



Tuning: D(every string down one step)

|------------------------------------------------------------------|
|------------------------------------------------------------------|
|------------------------------------------------------------------| BOTH
|------------------------------------------------------------------| GTR'S
|---------666---------666-----555---------666---------666----555---|
|-000-666-----000-666-----555-----000-666-----000-666-----555------|
... ... ... ... ... ... ... ... ... ... ... ... ... ... ... ...

|-----------------------------------------------------------------|
|-----------------------------------------------------------------|
|-----------------------------------------------------------------| GTR I
|-----------------------------------------------------------------|
|-----888-666-----888-666-777-555-----888-666-----888-666-777-555-|
|-000-666-----000-666-----555-----000-666-----000-666-----555-----|
| ... ... ... ... ... ... ... ... ... ... ... ... ... ... ... ... |
| |
|-----------------------------------------------------------------|
|-----------------------------------------------------------------|
|-----------------------------------------------------------------| GTR II
|---------888---------888-----777---------888---------888-----777-|
|-----------------------------------------------------------------|
|-000-666-----000-666-----555-----000-666-----000-666-----555-----|
... ... ... ... ... ... ... ... ... ... ... ... ... ... ... ...

|------------------------------------------------------------------|
|------------------------------------------------------------------|
|---------10----------10-------9----------10---------10------9-----| BOTH
|---------8-----------8--------7----------8----------8-------7-----| GTR'S
|------------------------------------------------------------------|
|-000-666-----000-666------555----000-666-----000-666----555-------|
... ... ... ... ... ... ... ... ... ...

Let notes ring out with cymbal splash.

Riff A(play four times)
|---------------------------------------------------------------------|
|---------------------------------------------------------------------|
|---------------------------------------------------------------------| BOTH
|---------------------------------------------------------------------| GTR'S
|-4----------------4----------------4---------------------------------|
|---3-2-3-00000000---3-2-3-00000000---3-2-3-000044445555000011112222--|
. . . . ........ . . . . ........ . . . . ........................

Riff B(play four times) (end of Riff B)
|---------|-------------------------------------------------------------|
|---------|-------------------------------------------------------------|
|---------|-------------------------------------------------------------| BOTH
|---------|-------------------------------------------------------------| GTR'S
|-4-------|---------7----------6-5-----5---------7----------5-4---------|
|---3-2-3-|-55555555-5-44444444----5-4---55555555-5-44444444-----6-5-4~-|
. . . . ........ . ......... . . . ........ ........ . .

_________________________
Riff C | repeat 4 times |
|-----|---------------------------|
|-----|---------------------------|
|-----|*-------------------------*|
|-----|*--------------------65--*|
|--7-|-6-5----4/5----87---43-6-|
|--5-|-4-3-00-2/3-00-65-0-----4-|
.. .. .

Riff D(guitar two plays the octave of course, palm mute both guitars when)
(a palm mute is indicated)
|---------------------------------------------------------------------------
|---------------h-P---------------------------------------------------------
|-7-6----9-7-6-6-7-6----6--------------------------7-6---9-7-6-----7-6------
|------7--------H-P---7---7-6--------------------------7-------7-9-----7-6--
|-5-4----7-5-4-4-5-4----4--------------------------5-4---7-5-4-----5-4------
|------5--------------5---5-4--222222222222222222------5-------5-7-----5-4--
. ..................

---------------------------------------------------------------------------
----------------------------------H-P--------------------------------------
---------------------7-6---9-7-6-6-7-6---6------------------------7-6---9-7
-------------------------7--------H-P--7---7-6------------------------7----
---------------------5-4---7-5-4-4-5-4---4------------------------5-4---7-5
--111111111111111111-----5-------------5---5-4-222222222222222222-----5----
.................. . ..................

----------------------------------|------------------------------------------
----------------------------------|------------------------------------------
--6-----7-6-----------------------|------------------------------------------
----7-9-----7-6-------------------|-6------------7------------6------------7-
--4-----5-4-----------------------|--0000000000---0000000000---0000000000----
----5-7-----5-4-11111111111111111-|------------------------------------------
................. .......... .......... ..........

--------------------------------------------------------------------
--------------------------------------------------------------------
--------------------------------------------------------------------
-------9------6------------7------------6------------7------9-------
--0000---0000---4444444444---4444444444---4444444444---4444---4444--
--------------------------------------------------------------------
.... .... .......... .......... .......... .... ....


-------------------------------------------------------------------
-------------------------------------------------------------------
-------------------------------------------------------------------
-6------------7------------6------------7------9------6------------
--0000000000---0000000000---0000000000---0000---0000---4444444444--
-------------------------------------------------------------------
.......... .......... .......... .... .... ..........

end of Riff D
------------------------------------------|
------------------------------------------|
------------------------------------------|
--7-----------6-------------7------9------|
---4444444444---44444444444---4444---4444-|
------------------------------------------|
.......... ........... .... ....

Rhythm behind solo(play three times)
|--------------------------------------
|--------------------------------------
|--------------------------------------
|--------------------------------------
|-222222222222222255553333333333333333-
|--------------------------------------
.....................................

(end rhythm behind solo)
------------------------------------------|
------------------------------------------|
------------------------------------------|
-1111-------------------------------------|
-----222222222222222255553333333333333333-|
------------------------------------------|
.........................................|

|---------------------------------------------------------------------
|---------------------------------------------------------------------
|---------------------------------------------------------------------
|---------------------------------------------------------------------
|-------------------------------------------11111111111111------------
|-222222222222223333333333333322222222222222--------------22222222222-
....................................................................
_____________ ______
| 1. | 2.
----------------------------------------------|------|
----------------------------------------------|------|
----------------------------------------------|------|
----------------------------------------------|-3----|
-------------------------------11111111111111-|-1----|
-222333333333333322222222222222---------------|------|
.............................. .............

Play Riff A
Play Riff B
Play Riff C
Play Riff D(except end riff D with chord)
Другие песни: