Dead KennedysCalifornia Uber Alles Текст

0 Голосов
e:-------------------------------------------|

B:-------------------------------------------|
G:-----------------x2------------------------|x3.5
D:-----------------|9-99-9-99/101010101012109|
A:-7-8-10-87-8-10-8|7-77-7-77/8-88-8-88/1087|
E:-----------------|pmpm--pm--pmpm-pmpm------|

e:8--9--8||--------x3--------------
B:8--9--8||---------|--------------
G:9--10-9||---------|--------------
D:10-11-10|9-1012109|7--9999999-77-
A:10-11-10|7-8-10-87|55-7777777-555
E:8--9--8||---------|-3-----------3

CHORUS:

e:77-77-77/8--|x2 each time chorus comes around
B:77-77-77/8--|
G:99-99-99/10-|
D:99-99-99/10-|
A:77-77-77/8--|
E:-------------|

bridge(after each chorus and played after the second one)

e:---------------|x2(note:when bridge comes around by itself play
B:---------------| without power chors until he shouts die! then
G:---------------| repeat chorus once.)
D:9999999-77-----|
A:7777777-5588-55|
E:----------66-33|

finishing riff:

e-------------------|x3|----| see very simple listen to the album,
B-------------------||||----| record, cd, cassette whatever u have
G---------------7---||||----| to find out the exact rythem!
D9-9999-9997-77757-9||||9999|
A7-7777-7775-555-5-7||||7777|
E-------------------||||----|
Другие песни: