Dead By AprilWhat Can I Say Текст

0 Голосов
Intro 
e|---------------------------------------------------------------------|
B|------2-------------------------------2------------------------------|
G|------------3------5-----1-----3-------------3------5-----1----1-----| X2
D|-----3-----3------3-----3-----3------3------3------3-----3-----------|
A|--1-----1------1-----1-----1------1------1------1------1-----1----4-3|
E|---------------------------------------------------------------------|

I tried to be all that you need
Tried to not ever let you down
Still I can see it in your eyes
Not good enough

Bb
This time I believed that I really could change
I gave it all
This time you really had my everything
I guess I was wrong
F# Ab
I guess I was wrong

F# Eb Bb
What can I say, What can I do
Ab F#
This is who I am and I am hurting you
Eb Bb
What can I say, what can I do
Ab F#
No matter how strong my feelings are
Ab
I always end up hurting you
F# Ab
I always end up hurting you

e|---------------------------------------------------------------------|
B|------2-------------------------------2------------------------------|
G|------------3------5-----1-----3-------------3------5-----1----1-----| X2
D|-----3-----3------3-----3-----3------3------3------3-----3-----------|
A|--1-----1------1-----1-----1------1------1------1------1-----1----4-3|
E|---------------------------------------------------------------------|

I tried hard only to be him
You always wanted in life
Still I just bring you misery
What can I do

Bb
This time I believed in you and me
When I gave it all
This time I can see it all perfectly,
I guess I was wrong
F# Ab
I guess I was wrong

F# Eb Bb
What can I say, What can I do
Ab F#
This is who I am and I am hurting you
Eb Bb
What can I say, what can I do
Ab F#
No matter how strong my feelings are
Ab
I always end up hurting you
F# Ab
I always end up hurting you

F#
Without you I keep crying
Bb Ab F# Bb
With you I am just hurting you

F#
Without you I am dying
Bb Ab F#
With you I am tearing your heart

Bb
Without you I am crying
Without you I am dying

Ab F#

F# Eb Bb
What can I say, What can I do
Ab F#
This is who I am and I am hurting you
Eb Bb
What can I say, what can I do
Ab F#
No matter how strong my feelings are
Ab
I always end up hurting you
F# Ab
I always end up hurting you
Другие песни: