De HeideroosjesFistfuckparty At 701 Текст

0 Голосов
Artist-DE Heideroosjes

Song-Fistfuckparty at 701
Album: Kung Fu
Instrument-Guitar
Tabbed by: ragbagger

Intro: (light distortion)

|---------------------------------------------------
|-------9------10------9-------7-----------------
|-----6------6-------9--------4------------------- x2
|---------------------------------------------------
|---------------------------------------------------
|---------------------------------------------------

Verse:

|--------------------------------------------------------------
|---9xx9xx9---10xx10xx10---9xx9xx9---7xx7xx7----
|---6xx6xx6----6xx-6xx-6----9xx9xx9----4xx4xx4--- x4
|--------------------------------------------------------------
|--------------------------------------------------------------
|---------------------------------------------------------------

Pre-chorus:

|----------------------------------------------------------------
|--9999999--10101010101010-9999999-7777777------
|--6666666----6-6-6-6-6-6-6-6-9999999-4444444------ x2
|----------------------------------------------------------------
|----------------------------------------------------------------
|----------------------------------------------------------------

Chorus:

|--------------------------------------------------------------------
|--9--10---9-12---9--10--9--4-----------------------------------
|--6---7---6--9----6--7---6--4-----------------------------------
|--6---7---6--9----6--7---6--4----------------------------------- x2
|--------------------------------------------------------------------
|--------------------------------------------------------------------

Bridge:

|---11-9-11-9-11-------------11-9-11-9------------------------
|--------------------------------------------------------------------
|---------------------------------------------------------------------
|---------------------------------------------------------------------
|---------------------------------------------------------------------
|----------------------------------------------------------------------

|----------------------------------------------------------------------
|---4-2-4-2--4-2-4----4-2------------------------------------------
|----------------------------------------------------------------------
|-----------------------------------------------------------------------
|-----------------------------------------------------------------------
|------------------------------------------------------------------------

And that’s it it’s very simple but any corrections are always welcom.
You can mail me on ragbagger14@hotmail.com
Другие песни: