David GuettaThe World Is Mine Текст

0 Голосов
Tuning: Drop D

Synth'd intro:
1 & 2 & 3 & 4
e|-----------------------------------------------------------|
B|-----------------------------------------------------------|
G|-----------------------------------------------------------| X8
D|-----------------4-----------------4-----4-----------------|
A|-----------------------------------------------------------|
D|-----------------------------------------------------------|

CHORUS:
F# F#
e|-----5-----5-----5h7------------5-----5-----5h7----------|
B|--------5-----5--------------------5-----5---------------|
G|---------------------------------------------------------|
D|---------------------------------------------------------|
A|---------------------------------------------------------|
D|-----4--------4-----------------4--------4---------------|

D E
e|-----5-----5-----5h7------------5-----5----5h7-----------|
B|--------5-----5--------------------5-----5---------------|
G|---------------------------------------------------------|
D|---------------------------------------------------------|
A|---------------------------------------------------------|
D|-----0--------0-----------------2--------2---------------|
Другие песни: