David GuettaMoney Текст

0 Голосов
Tuning: standard

Main Riff

e|-----------|
B|-----------|
G|---6--8----|
D|---6--8----|
A|---4--6----|
E|-----------| 5X

then

e|------------------------------|
B|------------------------------|
G|--6--4--4--4--6--6--6--8------|
D|--6--4--4--4--6--6--6--8------|
A|--4--2--2--2--4--4--4--6------|
E|------------------------------|

listen to song for right timing
Другие песни: