David GuettaGettinэ Over You Текст

0 Голосов
Capo on 3th Fret.

Keep this pattern for basically the whole song:
Dsus2 Am F
e|-----------------------------------0---0---0---0-------------------------|
B|---2---2---2---2---2---2---2---2---1---1---1---1---1---1---1---1---------|
G|---3---3---3---3---3---3---3---3---2---2---2---2---2---2---2---2---------|
D|---0---0---0---0---0---0---0---0---2---2---2---2---2---2---2---2---------|
A|-----------------------------------0---0---0---0---3---3---3---3---------|
E|-------------------------------------------------------------------------|
All the.. right now if I Only.. back then There's no gettin'

C Em
e|-------------------------------------------------------------------------|
B|---1---1---1---1---1---1---1---1---0---0---0---0---0---0---0---0---------|
G|---0---0---0---0---0---0---0---0---0---0---0---0---0---0---0---0---------|
D|---2---2---2---2---2---2---2---2---2---2---2---2---2---2---2---2---------|
A|---3---3---3---3---3---3---3---3---2---2---2---2---2---2---2---2---------|
E|----------------------------------(0)-(0)-(0)-(0)-(0)-(0)-(0)-(0)--------|
Over.. There's just no Gettin' over you
Другие песни: