David GuettaAlphabeat Текст

0 Голосов
Riff А
e|------------------------------------------------------|
B|---10-9-10---9-7-9---7-5-7----10-9-10---9-7-9---7-5-7-|
G|------------------------------------------------------|
D|------------------------------------------------------|
A|-9---------7-------6--------9---------7-------6-------|
E|------------------------------------------------------|

Riff В
e|--------------------------------------------------------|
B|---10-9-10---9-7-9---7-5-7--14-12-14--10-9-10--5-9-7-9--|
G|--------------------------------------------------------|
D|--------------------------------------------------------|
A|-9---------7-------6------------------------------------|
E|--------------------------------------------------------|
Другие песни: