David GrayThis Years Love Текст

0 Голосов
Artist: David Gray
Track: This Years Love
Album: White Ladder
Bassist: Clune

~~~~~~~~~~~~~~~~~~~~~~~~
Tabbed by: Scotia scotia@fatbassline.co.uk 11/3/01
~~~~~~~~~~~~~~~~~~~~~~~~

This is how I think this beautiful song is played.

(1st) 1:03
(2nd) 2:05 x3
G-----------||------------------------||------------------|
D--Piano-&--||*-------------1--------*||------------------|
A---Vocal---||*---4---3--1-------3---*||------------------|
E-----------||------------------------||---4---4--4---1---|


x3
G-||-----------------------||
D-||*-------------1-------*||
A-||*---4---3--1------3---*||
E-||-----------------------||


1st time~~~~~~~~~~~|
2nd time ~~~~~~~~| x2
G-||----------------------------------------------||
D-||*--------------------------------------------*||
A-||*-------------------------1--3-4--4--4--4-3--*||
E-||---4---4--4---4-0-1--1-1----------------------|| Then back to start
(once more through)




3:07 x3 x2
G-||-----------------------||----------------------------||
D-||*-------------1-------*||-------------1--3-4-5------*||
A-||*---4---3--1------3---*||---4---3--1------------3---*||
E-||-----------------------||----------------------------||


x2
G-||-----------------------||--------------||
D-||*-------------1-------*||--------------||
A-||*---4---3--1------3---*||--4---4-------||
E-||-----------------------||----------4---||



There we go. Hope the repeat structure's correct.
I'm not too sure about some of the passing notes,
but it's basically there.
Другие песни: