David GrayPlease Forgive Me Текст

0 Голосов
Please Forgive Me - David Gray

Tabbed by Scott Brabson

Alright, this is my first tab, so bare with me if the spacing on this thing is a little off.

I'm just tabbing the small guitar riffs throuhout the song, chords for the song are found
on the other versions.

First things first, capo this baby on the third fret to make things easy. About midway
through the song, the guitar begins a little like this.


(riff 1) (riff 2)
e|-----5-5------5-4----
B|-0h2------0h2--------
G|---------------------
D|---------------------
A|---------------------
E|---------------------

Riff 1 and 2 are basically repeated one after another, though nearing the end of each verse,
riff 2 is repeated 3 times, then going back into the same pattern.

At the end of the song, after riff 1 and 2, the guitar goes into this little number...

e|---2----2----0---0-----------------
B|-2----2----2---2------3---3---3---3
G|--------------------4---4---4---4--
D|-----------------------------------
A|-----------------------------------
E|-----------------------------------

It then picks back up into that same patterin with riff 1 and 2 and the music fades.

Hope this helps out, e-mail me with questions/comments at digsb22@aol.com. I'll have an
accurate tab of babylon 2 out very soon. Thanks and God bless you all!
In His Service,
Scotty B
Другие песни: