David GrayCentury Ends Текст

0 Голосов
#----------------------------------PLEASE NOTE--------------------------------#

#This file is the author's own work and represents their interpretation of the#
#song. You may only use this file for private study, scholarship, or research.#
#-----------------------------------------------------------------------------#
From:Gareth Nolan
Email:garethdn@hotmail.com
Artist:David Gray
Album:A Century Ends
Song:A Century Ends

This is a perfect transcription of a century ends.

FIGURE 1
A Asus2 E E7 D Dsus2 E E7
e)--0------0------0-----0-----2------0------0-----0-----------------------------------------|
B)--2------0------0-----0-----3------3------0-----0-----------------------------------------|
G)--2------2------0-h-1-1-----2------2------0-h-1-1-----------------------------------------|
D)--2------2------0-h-2-0-----0------0------0-h-2-0-----------------------------------------|
A)--0------0------0-h-2-2-----0------0------0-h-2-2-----------------------------------------|
E)--0------0------0-----0-----0------0------0-----0-----------------------------------------|

FIGURE 2
F#m D Dsus2 F#m D Dsus2 E E7
e)--2--2--2--2--0--0--------2--2--2--0--0-----0--0------------------------------------------|
B)--2--2--3--3--3--3--------2--2--3--3--0-----0--0------------------------------------------|
G)--2--2--2--2--2--2--------2--2--2--2--0-h-1-1--1------------------------------------------|
D)--4--4--0--0--0--0--------4--4--0--0--0-h-2-2--0------------------------------------------|
A)--4--4--0--0--0--0--------4--4--0--0--0-h-2-2--2------------------------------------------|
E)--2--2--0--0--0--0--------2--2--0--0--0-----0--0------------------------------------------|

------------------------------------
Order of the song:

Figure 1 (x6)

Figure 2 (x1)

Figure 1 (x6)

Figure 2 (x1)

Figure 1 followed by a bar of A (x1)

Now play |E| |B| |D| |A| (x2)

Then |F| |G| |D| |E| (x1)

Figure 2 (x1)

Figure 1 (x5)

Figure 2 (x1)

Figure 1 (x9)

Figure 2 (x1) *HERE REPLACE THE SECOND F#M WITH G#

Finally play |A| |E| (x1)

|F| |G| |A| repeat to fade

This is an extremely accurate tab and must not, nay , will not be criticised.
Transcribed and tabbed by Gareth Nolan.
Другие песни: