Dave Matthews BandPantala Naga Pampa Текст

0 Голосов
-=-=-=-=-=-=-=-=-=-=-=-=-=-=-=-=-=-=-=

Dave Matthews Band
Pantala Naga Pampa
Before This Crowded Streets
Tabbed by Leandro Koren
leandro_koren@yahoo.com.ar
-=-=-=-=-=-=-=-=-=-=-=-=-=-=-=-=-=-=-=

Intro:
Try to find the rhythm for the intro.

D A G
E|-|---------------------------|-|-----------|-|-----------|-|
B|-|---------------------------|-|-----------|-|-----------|-|
G|-|--11-11-11-11-11-11-11-11--|-|--6-6-6-6--|-|--4-4-4-4--|-|
D|-|---7--7--7--7--7--7--7--7--|-|--2-2-2-2--|-|--0-0-0-0--|-|
A|-|---9--9--9--9--9--9--9--9--|-|--4-4-4-4--|-|--2-2-2-2--|-|
e|-|--10-10-10-10-10-10-10-10--|-|--5-5-5-5--|-|--3-3-3-3--|-| X 2

Verse:

Dsus4/E A D/F#
Come and relax now
D/G C9/B
Leave your troubles down
D/E D/F#
No need to bear the weight of your worries here
D/G G
Let them all fall away.

End:
G A D
E|-|----------------|-|
B|-|----------------|-|
G|-|--4-4--6-6--11--|-|
D|-|--0-0--2-2---7--|-|
A|-|--2-2--4-4---9--|-|
e|-|--3-3--5-5--10--|-|

Chords:

Dsus4/E A D/F# D/G C9/B D/E
E|-|----0----|----0----|----2----|----2----|----3----|----2----|-|
B|-|----8----|----8----|----3----|----3----|----3----|----3----|-|
G|-|----7----|----6----|----2----|----2----|----0----|----X----|-|
D|-|----5----|----0----|----0----|----0----|----2----|----2----|-|
A|-|----7----|----7----|----0----|----X----|----2----|----X----|-|
e|-|----0----|----5----|----2----|----3----|----X----|----X----|-|

G
E|-|----3----|-|
B|-|----3----|-|
G|-|----0----|-|
D|-|----0----|-|
A|-|----2----|-|
e|-|----3----|-|
Другие песни: