Dave Matthews BandDont Drink The Water And Wasting Time Transition Текст, аккорды

0 Голосов
=-=-=-=-=-=-=-=-=-==-=-=-=-=-=-=-=-=-==-=-=-=-=-=-=-=-=-=

Dave Matthews Band & Alanis Morissette
Don't Drink The Water & Stay(Wasting Time) Transition
Before This Crowded Streets
=-=-=-=-=-=-=-=-=-==-=-=-=-=-=-=-=-=-==-=-=-=-=-=-=-=-=-=

All over the flute solo.

E|-|-------------------------------|-|
B|-|-------------------------------|-|
G|-|-------------------------------|-|
D|-|--------2--4--2-----------4--2-|-|
A|-|-----2-----------2-----2-------|-|
e|-|--0-----------------0----------|-| X 2


E|-|-------------------------------|-|
B|-|-------------------------------|-|
G|-|--------6--8--6-----------8--6-|-|
D|-|-----6-----------6-----6-------|-|
A|-|--4-----------------4----------|-|
e|-|-------------------------------|-| X 2

And then:

E|-|----------------------------------------------------------|-|
B|-|----------------------------------------------------------|-|
G|-|----------------------------------------------------------|-|
D|-|--------7--9--11--------7--9--11--------7--9--11--------7-|-|
A|-|-----7---------------7---------------7---------------7----|-|
e|-|--5---------------5---------------5---------------5-------|-|
Другие песни: