Dave Matthews BandBusted Stuff Текст

0 Голосов
Busted Stuff

Dave Matthews Band

Tabbed by: Ferris (with a lot of help from others)
Ferris4I@aol.com

VERSE:


E----------------------3----------
B--1-------3----1------2----------
G--0-------0----0------3----------
D--0h2p0---0----0h2p0--0----------
A--3-------x----3-----------------
E----------3----------------------
Not enough, never too much,


E----------3--3----0---3---------
B--1-------2--2----2---3---------
G--0-------3--3----3---0---------
D--0h2p0---0--0----0---0---------
A--3---------------0---2---------
E------------------2---3---------
woman looked just like love


Rolling stone, gather no moss,
but leaves a trail of Busted Stuff.


CHORUS:

D Am G D/F#
I Know she's gonna leave my broken heart behind
G C D/F# G
I dig what she's giving up
D Am G D/F#
I Know she's gonna leave my broken heart behind
G C D/F# G
I dig what she's giving up


E-------
B-------
G---3---
D---0---
A---1---
E---3---

Yeah, yeah, you're the one, you're the one for me . . .
Другие песни: