DatsunsBlacken My Thumb Текст

0 Голосов
-----------------------------------------------------------------------------

Blacken My Thumb - The Datsuns
-----------------------------------------------------------------------------
Tabbed by: Jon Fisher
Email: twelve_fifty_one @ hotmail.com

Tuning:EADGBe

INTRO
e|--------------------------------------------------------------------------|
B|--------------------------------------------------------------------------|
G|--------------------------------------------------------------------------|
D|5---------------5-----------------5-----------------5-----------------5---|
A|-------------543---------------543---------------543---------------543----|
E|-333333333333------333333333333------333333333333------333333333333-------|

Both Guitars In Verse
e|--------------------------------------------------------------------------|
B|--------------------------------------------------------------------------|
G|--------------------------------------------------------------------------|
D|----------------5-----------------3-----------------5-----------------5---|
A|-------------543---------------543---------------321---------------543----|
E|-333333333333------333333333333------111111111111------333333333333-------|x2

Chorus
e|--------------------------------------------------------------------------|
B|--------------------------------------------------------------------------|
G|--------------------------------------------------------------------------|
D|--58--710------------58-710------------58-710--------------4-75~----------|
A|-6---8---10--------6--8---10--------6--8---10---------58-5-------------|
E|------------333333------------333333------------333333--6-----------------|

More Verse-ness...
e|--------------------------------------------------------------------------|
B|--------------------------------------------------------------------------|
G|--------------------------------------------------------------------------|
D|----------------5-----------------3-----------------5-----------------5---|
A|-------------543---------------543---------------321---------------543----|
E|-333333333333------333333333333------111111111111------333333333333-------|x2

Chorus
e|--------------------------------------------------------------------------|
B|--------------------------------------------------------------------------|
G|--------------------------------------------------------------------------|
D|--58--710------------58-710------------58-710--------------4-75~----------|
A|-6---8---10--------6--8---10--------6--8---10---------58-5-------------|
E|------------333333------------333333------------333333--6-----------------|

And Then The Random Lead Parts....
e|--------------------------------------------------------------------------|
B|--8--10--11---------------------------------------------------------------|
G|-10b-12b-13b------and similar notes...------------------------------------|
D|--------------------------------------------------------------------------|
A|--------------------------------------------------------------------------|
E|--------------------------------------------------------------------------|


e|--------------------------------------------------------------------------|
B|--------------------------------------------------------------------------|
G|--------------------------------------------------------------------------|
D|------53---------------53---------------53----------------53-----------5--|
A|-543----53--------543----53--------543----53---------543----53---------5--|
E|----6------6543~-----6------6543~-----6-------6543~-----6------6543~---3--|

Thats it :)
RAWK!

Jon x


| / slide up
| slide down
| h hammer-on
| p pull-off
| ~ vibrato
| + harmonic
| x Mute note
===============================================================================
Другие песни: