Dashboard ConfessionalThe Brilliant Dance Текст

0 Голосов
Dashboard COnfessional- This Brilliant Dance 

By: ANdrew Mchsan( guitarguyx182)
tuining is DADDDD

Verse:
Db ---0-0--0-0------------0-0--0-0--0-0--0-0---0/0--0-0--0-0--0-0----------
Db ---0-0--0-0------------0-0--0-0--0-0--0-0---0/0--0-0--0-0--0-0----------
Db ---0-0--0-0---x4-------0-0--0-0--0-0--0-0---0/0--0-0--0-0--0-0----------
Db ---4-4--4-4------------2-2--2-2--2-2--2-2---2/5--5-5--5-5--5-5----------
Ab ---4-4--4-4------------0-0--0-0--0-0--0-0---0/0--0-0--0-0--0-0----------
Db ---0-0--0-0------------2-2--2-2--2-2--2-2---2/5--5-5--5-5--5-5----------
so this is odd...
a Painful realization
That all has gone wrong
And nobody cares at all
And nobody cares at all
Chorus:
Db ---0-0--0-0--0-0--0-0--0-0--0-0--0-0--0-0---
Db ---0-0--0-0--0-0--0-0--0-0--0-0--0-0--0-0---
Db ---0-0--0-0--0-0--0-0--0-0--0-0--0-0--0-0--- x 1
Db ---0-0--------0-0--------2-2-------4-4--------
Ab ---0-0--------0-0--------0-0-------0-0--------
Db ---0-0--------0-0--------0-0-------0-0--------
So you bury all your lovers clothes

Db ---0-0--0-0--0-0--0-0--0-0--0-0--0-0--0-0---
Db ---0-0--0-0--0-0--0-0--0-0--0-0--0-0--0-0---
Db ---0-0--0-0--0-0--0-0--0-0--0-0--0-0--0-0--- x 1
Db ---4-4--------0-0--------4-4--------5-5--------
Ab ---5-5--------5-5--------5-5--------5-5--------
Db ---5-5--------5-5--------5-5--------5-5--------
And burn the letters lover wrote

Db ---2-2--2-2---2-2--2-2---2-2--2-2---2-2--2-2---
Db ---2-2--2-2---2-2--2-2---2-2--2-2---2-2--2-2---
Db ---2-2--2-2---2-2--2-2---2-2--2-2---2-2--2-2---
Db ---4-4--4-4---2-2--2-2---5-5--5-5---4-4--4-4---
Ab ---2-2---------2-2---------2-2---------2-2--------
Db ---2-2---------2-2---------2-2---------2-2--------
But it doesn't make it any better

Db ---0-0--0-0--0-0--0-0--0-0--0-0--0-0--0-0---
Db ---0-0--0-0--0-0--0-0--0-0--0-0--0-0--0-0---
Db ---0-0--0-0--0-0--0-0--0-0--0-0--0-0--0-0--- x 1
Db ---4-4--------0-0--------4-4--------5-5--------
Ab ---5-5--------5-5--------5-5--------5-5--------
Db ---5-5--------5-5--------5-5--------5-5--------
Doesn't make it any better

And the plaster dented from your fist
in the hall where you had your first kiss
reminds you that the memories will fade

Verse 2:
Db ---0-0--0-0------------0-0--0-0--0-0--0-0---0/0--0-0--0-0--0-0----------
Db ---0-0--0-0------------0-0--0-0--0-0--0-0---0/0--0-0--0-0--0-0----------
Db ---0-0--0-0---x4-------0-0--0-0--0-0--0-0---0/0--0-0--0-0--0-0----------
Db ---4-4--4-4------------2-2--2-2--2-2--2-2---2/5--5-5--5-5--5-5----------
Ab ---4-4--4-4------------0-0--0-0--0-0--0-0---0/0--0-0--0-0--0-0----------
Db ---0-0--0-0------------2-2--2-2--2-2--2-2---2/5--5-5--5-5--5-5----------
So this is strange,
our sidestepping has come to be a brilliant dance
where nobody leads at all,
where nobody leads at all.

Chorus 2( same as first chorus)
And the picture frames are facing down
And the ringing from this empty sound
Is deafening and keeping you from sleep.
And breathing is a foreign task
and thinking's just too much to ask
and you're measuring your minutes by a
clock that's blinking eights.

Bridge
Db ---0-0--0-0-----0-0--0-0-----0-0--0-0-----0-0-0-0--
Db ---0-0--0-0-----0-0--0-0-----0-0--0-0-----0-0-0-0--
Db ---0-0--0-0-----0-0--0-0-----0-0--0-0-----0-0-0-0--
Db ---2-2--2-2-----4-4--4-4-----5-5--5-5-----7-7-7-7--
Ab ---2-2--2-2-----4-4--4-4-----5-5--5-5-----7-7-7-7--
Db ---0-0--0-0-----0-0--0-0-----0-0--0-0-----0-0-0-0--

Db ---0--0---0---0----0---0---0--0----0-0--0-0----0-0--0-0--
Db ---0--0---0---0----0---0---0--0----0-0--0-0----0-0--0-0--
Db --12-12--12-12---11-11--11-11---9-9--9-9----4-4--4-4--
Db ---0--0---0---0----0---0---0--0----0-0--0-0----0-0--0-0--
Ab ---0--0---0---0----0---0---0--0----0-0--0-0----0-0--0-0--
Db ---0--0---0---0----0---0---0--0----0-0--0-0----0-0--0-0--
This is incredible, starving insatiable

Db ---0-0--0-0----0-0--0-0-----0-0--0-0-----0-0--0-0--
Db ---0-0--0-0----0-0--0-0-----0-0--0-0-----0-0--0-0--
Db ---0-0--0-0----0-0--0-0-----0-0--0-0-----0-0--0-0--
Db ---5-5--5-5----4-4--4-4-----2-2--2-2-----0-0--0-0--
Ab ---2-2--2-2----2-2--2-2-----3-3--3-3-----3-3--3-3--
Db ---x-x--x-x----x-x--x-x-----x-x--x-x-----x-x--x-x--
yes, this is love for the first time.

Db -0-0-0-0-0-0-0-0-0-0-0-0-0-0-0-0-0-0-0-0-0-0-0-0--
Db -0-0-0-0-0-0-0-0-0-0-0-0-0-0-0-0-0-0-0-0-0-0-0-0--
Db -0-0-0-0-0-0-0-0-0-0-0-0-0-0-0-0-0-0-0-0-0-0-0-0--
Db -0-0-0-0-0-0-9-9-9-9-9-9-0-0-0-0-0-0-9-9-9-9-9-9-- *
Ab -5-5-7-7-9-9-x-x-x-x-x-x-5-5-7-7-9-9-x-x-x-x-x-x-- *
Db -0-0-0-0-0-0-0-0-0-0-0-0-0-0-0-0-0-0-0-0-0-0-0-0--
you liked to think you were invisible, yeah well

Db ---0-0--0-0----0-0--0-0-----0-0--0-0-----0-0--0-0--
Db ---0-0--0-0----0-0--0-0-----0-0--0-0-----0-0--0-0--
Db ---0-0--0-0----0-0--0-0-----0-0--0-0-----0-0--0-0--
Db ---5-5--5-5----4-4--4-4-----2-2--2-2-----0-0--0-0--
Ab ---2-2--2-2----2-2--2-2-----3-3--3-3-----3-3--3-3--
Db ---x-x--x-x----x-x--x-x-----x-x--x-x-----x-x--x-x--
weren't we all once? before we felt lost for the

Db -0-0-0-0-0-0-0-0-0-0-0-0-0-0-0-0-0-0-0-0-0-0-0-0--
Db -0-0-0-0-0-0-0-0-0-0-0-0-0-0-0-0-0-0-0-0-0-0-0-0--
Db -0-0-0-0-0-0-0-0-0-0-0-0-0-0-0-0-0-0-0-0-0-0-0-0--
Db -0-0-0-0-0-0-9-9-9-9-9-9-0-0-0-0-0-0-9-9-9-9-9-9--
Ab -5-5-7-7-9-9-x-x-x-x-x-x-5-5-7-7-9-9-x-x-x-x-x-x--
Db -0-0-0-0-0-0-0-0-0-0-0-0-0-0-0-0-0-0-0-0-0-0-0-0--
first time, well is this the

Db ---0-0--0-0----0-0--0-0-----0-0--0-0-----0-0--0-0-------------0---
Db ---0-0--0-0----0-0--0-0-----0-0--0-0-----0-0--0-0-------------0---
Db ---0-0--0-0----0-0--0-0-----0-0--0-0-----0-0--0-0--End-On-----0---
Db ---5-5--5-5----4-4--4-4-----2-2--2-2-----0-0--0-0-------------0---
Ab ---2-2--2-2----2-2--2-2-----3-3--3-3-----3-3--3-3-------------0---
Db ---x-x--x-x----x-x--x-x-----x-x--x-x-----x-x--x-x-------------0---
Last Time..........
Другие песни: