Dashboard ConfessionalScreaming Infidelaties Текст

0 Голосов
Screaming Infidelities


This is the REAL tab. I asked Chris at a concert how he tuned
for this song and then I watched a video of him playing it to
get the fingering. This IS the real tab.

Tuning: Db-Ab-Db-Db-Db-db
/
This string is going to ring
a little if your strings aren't This is the advice
a high gauge. /of Chris.

now the tab:

Verse-
db|-5-5-5-4--4-4-4-4-4--4-0-0-0-0--0-0-0-0-0--0
Db|-0-0-0-0--0-0-0-0-0--0-0-0-0-0--0-0-0-0-0--0
Db|-x-x-x-x--x-x-x-x-x--x-0-0-0-0--0-0-0-0-0--0
Db|-5-5-5-4--4-4-4-4-4--4-x-x-x-x--x-x-x-x-x--x
Ab|-0-0-0-0--0-0-0-0-0--0-2-2-2-3--3-3-3-3-3--3
Db|-0-0-0-0--0-0-0-0-0--0----------------------
>This is
db|-5-5-5-4--4-4-4-4-4--4-0-0-0-2--2-2-2-2-2--2 / the verse.
Db|-0-0-0-0--0-0-0-0-0--0-0-0-0-0--0-0-0-0-0--0 /
Db|-0-0-0-0--0-0-0-0-0--0-0-0-0-0--0-0-0-0-0--0 /
Db|-0-0-0-0--0-0-0-0-0--0-x-x-x-x--x-x-x-x-x--x /
Ab|-x-x-x-x--x-x-x-x-x--x-4-4-4-2--2-2-2-2-1--1 /
Db|-5-5-5-4--4-4-4-4-4--4----------------------

Right before chorus do the last bar like this-

db|-5-5-5-4--4-4-4-4-4--4-0-0-0-2--2-2-2-2-2--2-2-2-2
Db|-0-0-0-0--0-0-0-0-0--0-0-0-0-0--0-0-0-0-0--0-0-0-0
Db|-0-0-0-0--0-0-0-0-0--0-0-0-0-0--0-0-0-0-0--0-0-0-0
Db|-0-0-0-0--0-0-0-0-0--0-x-x-x-x--x-x-x-x-x--x-x-x-x
Ab|-x-x-x-x--x-x-x-x-x--x-4-4-4-2--2-2-2-2-1--1-1-1-1
Db|-5-5-5-4--4-4-4-4-4--4----------------------------

Chorus-
db|-4h5-7--7p5-4--7--7-7p5-4--2--4--5--5-5--5-5-5-0
Db|-0------0------0--0-0---0--0--0--0--0-0--0-0-0-0
Db|-0------0------0----0---0--0--0--0--0-0--0-0-0-0
Db|-0------0------x----x------x--x--0----0----0---0
Ab|-0-------------7----7------2--2--x----x----x---0
Db|-0-------------------------------5----5----5---0
>
db|-2--4--7--7-7-7-7--7-7-7-7--7-7 /
Db|-0--0--0--0-0-0-0--0-0-0-0--0-0 /
Db|-0--0--0--0-0-0-0--0-0-0-0--0-0 /
Db|-x--x--x--x-x-x-x--x-x-x-x--x-x /
Ab|-2--2--7--7-7-7-7--7-7-7-7--7-7 /
Db|----------------------------------------------

Bridge:
these are just the chords...figure out the strum pattern
yourself. I'm tired of typing.

db|-0---0---2---0
Db|-0---x---2---x
Db|-x---5---2---5
Db|-4---0---2---0
Ab|-0---x---2---x
Db|-0---5---2---5
Другие песни: