Dashboard ConfessionalAnyone Anyone Текст

0 Голосов
Anyone, Anyone



I'm not Sure of anyone.....anyone
E---x------------x-------5-----------------------------------------
B---x------------x-------5-----------------------------------------
G---6------------2-------7-----------------------------------------
D---7------------4-------7-----------------------------------------
A---4------------2-------5-----------------------------------------
E---5------------x-------5-----------------------------------------

.........but I've got plans
E---x------x------------------------------------------------
B---x------x------------------------------------------------
G---6------2----------2----4---6---7------------------------
D---7------4----------0----0---0---0------------------------
A---4------2----------0----0---0---0------------------------
E---5------x------------------------------------------------

.....I'm not asking...for everything but sure I could use a hand...
E-x----------x------------5----------------x------------x--------------------
B-x----------x------------5----------------x------------x-------2--4--6--7---
G-6----------2------------7----------------6------------2-------0--0--0--0---
D-7----------4------------7----------------7------------4-------0--0--0--0---
A-4----------2------------5----------------4------------2--------------------
E-5----------x------------5----------------5------------x--------------------

Chorus 1: (palm muted with a second guitar playing un-muted)

.......Get a little anxious sometimes, you'll be gone and I'll be left behind
E--x--------------x---------------------x---------------------x------------------
B--x--------------x---------------------x---------------------x------------------
G--x--------------4---------------------x---------------------5------------------
D--7--------------4---------------------4---------------------7------------------
A--7--------------2---------------------4---------------------5------------------
E--5--------------x---------------------2---------------------5------------------

......Get a little nervous sometimes, it'll be my queue and I'll forget my lines
E--x-------------x---------------------x------------------------x-----------------
B--x-------------x---------------------x------------------------x-----------------
G--x-------------4---------------------x------------------------5-----------------
D--7-------------4---------------------4------------------------7-----------------
A--7-------------2---------------------4------------------------5-----------------
E--5-------------x---------------------2------------------------5-----------------

(no more palm mute now)
........Get a little lost look as I'm staring from the corner of my eye
E--x--------------x------------------x-----------------5------------------
B--x--------------x------------------x-----------------5------------------
G--x--------------4------------------x-----------------5------------------
D--7--------------4------------------4-----------------7------------------
A--7--------------2------------------4-----------------5------------------
E--5--------------x------------------2-----------------5------------------

........I never really mastered disinterest
E--x-----------------x----------------x-----------5------------------
B--x-----------------x----------------x-----------5------------------
G--x-----------------4----------------x-----------5------------------
D--7-----------------4----------------4-----------7------------------
A--7-----------------2----------------4-----------5------------------
E--5-----------------x----------------2-----------5------------------

Verse 2:

......I can't see how the way that you leave me alone makes us...
E--x--------x-------------5--------------------------------------------
B--x--------x-------------5--------------------------------------------
G--6--------2-------------7--------------------------------------------
D--7--------4-------------7--------------------------------------------
A--4--------2-------------5--------------------------------------------
E--5--------x-------------5--------------------------------------------

.....close, I must be out of touch
E---x-------x--------------------------------------------------
B---x-------x--------------------------------------------------
G---6-------2-----------------2----4---6---7-----------------
D---7-------4-----------------0----0---0---0-----------------
A---4-------2-----------------0----0---0---0-----------------
E---5-------x--------------------------------------------------

.......I won't ask you to give up on the things that seem to keep you...
E--x---------x------------5-------------------------------------------------
B--x---------x------------5-------------------------------------------------
G--6---------2------------7-------------------------------------------------
D--7---------4------------7-------------------------------------------------
A--4---------2------------5-------------------------------------------------
E--5---------x------------5-------------------------------------------------

.....gone, but I could be gone too
E---x------------------x-------------------------------------------
B---x------------------x-------------------------------------------
G---6------------------2----------2----4---6---7-----------------
D---7------------------4----------0----0---0---0-----------------
A---4------------------2----------0----0---0---0-----------------
E---5------------------x-------------------------------------------

Chorus 2: (palm muted with a second guitar playing un-muted)

.......Feel a little sorry sometimes you're not here when I am writing
E--x--------------x------------------x-----------------------x---------------
B--x--------------x------------------x-----------------------x---------------
G--x--------------4------------------x-----------------------5---------------
D--7--------------4------------------4-----------------------7---------------
A--7--------------2------------------4-----------------------5---------------
E--5--------------x------------------2-----------------------5---------------

.......Feels a little awkward sometimes you won't talk but were not fighting
E--x----------------x---------------------x--------------------x---------
B--x----------------x---------------------x--------------------x---------
G--x----------------4---------------------x--------------------5---------
D--7----------------4---------------------4--------------------7---------
A--7----------------2---------------------4--------------------5---------
E--5----------------x---------------------2--------------------5---------

(no more palm mute now)
......You hold on to your secrets, and I'm not privy to what is on your mind
E--x-----------------------x-------------------x-------------5----------------
B--x-----------------------x-------------------x-------------5----------------
G--x-----------------------4-------------------x-------------5----------------
D--7-----------------------4-------------------4-------------7----------------
A--7-----------------------2-------------------4-------------5----------------
E--5-----------------------x-------------------2-------------5----------------

.......But I can't help but feel tired, so tired, so tired
E--x--------x---------------------x-------5------------------
B--x--------x---------------------x-------5------------------
G--x--------4---------------------x-------5------------------
D--7--------4---------------------4-------7------------------
A--7--------2---------------------4-------5------------------
E--5--------x---------------------2-------5------------------

Outro:

.......so tired............................so tired
E------------------------------------5---------------
B------------------------------------5---------------
G-------2--4--6--7--9--11--13--14----6---------------
D-------0--0--0--0--0---0---0---0----7---------------
A-------0--0--0--0--0---0---0---0----7---------------
E------------------------------------5---------------
Другие песни: